  0
SECTION
  2
HEADER
  9
$ACADVER
  1
AC1009
  9
$INSUNITS
  70
13
  9
$EXTMIN
  10
-498.6
  20
-372.4
  9
$EXTMAX
  10
501.4
  20
377.6
  0
ENDSEC
  0
SECTION
  2
TABLES
  0
TABLE
  2
LTYPE
  70
1
  0
LTYPE
  2
CONTINUOUS
  70
64
  3
Solid line
  72
65
  73
0
  40
0
  0
ENDTAB
  0
TABLE
  2
LAYER
  70
6
  0
LAYER
  2
MMIC_Die
  70
0
  62
75
  6
CONTINUOUS
  0
LAYER
  2
MMIC_Label
  70
0
  62
9
  6
CONTINUOUS
  0
LAYER
  2
MMIC_Via
  70
0
  62
208
  6
CONTINUOUS
  0
LAYER
  2
MMIC_OverCoat
  70
0
  62
1
  6
CONTINUOUS
  0
LAYER
  2
MMIC_Trace
  70
0
  62
3
  6
CONTINUOUS
  0
LAYER
  2
MMIC_BondPad
  70
0
  62
5
  6
CONTINUOUS
  0
ENDTAB
  0
ENDSEC
  0
SECTION
  2
BLOCKS
  0
ENDSEC
  0
SECTION
  2
ENTITIES
  0
POLYLINE
  8
MMIC_Die
  70
1
  66
1
  0
VERTEX
  8
MMIC_Die
  10
-498.6
  20
377.6
  0
VERTEX
  8
MMIC_Die
  10
-498.6
  20
-372.4
  0
VERTEX
  8
MMIC_Die
  10
501.4
  20
-372.4
  0
VERTEX
  8
MMIC_Die
  10
501.4
  20
377.6
  0
SEQEND
  0
POLYLINE
  8
MMIC_Label
  70
1
  66
1
  0
VERTEX
  8
MMIC_Label
  10
455.41
  20
332.34
  0
VERTEX
  8
MMIC_Label
  10
454.42
  20
334.32
  0
VERTEX
  8
MMIC_Label
  10
453.1
  20
336.3
  0
VERTEX
  8
MMIC_Label
  10
451.45
  20
337.62
  0
VERTEX
  8
MMIC_Label
  10
447.49
  20
339.6
  0
VERTEX
  8
MMIC_Label
  10
440.56
  20
339.6
  0
VERTEX
  8
MMIC_Label
  10
438.25
  20
339.27
  0
VERTEX
  8
MMIC_Label
  10
435.94
  20
337.95
  0
VERTEX
  8
MMIC_Label
  10
433.96
  20
336.63
  0
VERTEX
  8
MMIC_Label
  10
432.64
  20
334.98
  0
VERTEX
  8
MMIC_Label
  10
431.32
  20
332.67
  0
VERTEX
  8
MMIC_Label
  10
430.33
  20
330.69
  0
VERTEX
  8
MMIC_Label
  10
429.34
  20
328.05
  0
VERTEX
  8
MMIC_Label
  10
429.01
  20
325.74
  0
VERTEX
  8
MMIC_Label
  10
429.01
  20
320.46
  0
VERTEX
  8
MMIC_Label
  10
429.34
  20
318.15
  0
VERTEX
  8
MMIC_Label
  10
430.33
  20
315.51
  0
VERTEX
  8
MMIC_Label
  10
431.32
  20
313.53
  0
VERTEX
  8
MMIC_Label
  10
432.64
  20
311.22
  0
VERTEX
  8
MMIC_Label
  10
433.96
  20
309.57
  0
VERTEX
  8
MMIC_Label
  10
435.94
  20
308.25
  0
VERTEX
  8
MMIC_Label
  10
438.25
  20
306.93
  0
VERTEX
  8
MMIC_Label
  10
440.56
  20
306.6
  0
VERTEX
  8
MMIC_Label
  10
447.49
  20
306.6
  0
VERTEX
  8
MMIC_Label
  10
449.47
  20
307.26
  0
VERTEX
  8
MMIC_Label
  10
451.45
  20
308.58
  0
VERTEX
  8
MMIC_Label
  10
453.1
  20
309.9
  0
VERTEX
  8
MMIC_Label
  10
454.42
  20
311.22
  0
VERTEX
  8
MMIC_Label
  10
455.74
  20
313.2
  0
VERTEX
  8
MMIC_Label
  10
456.4
  20
315.18
  0
VERTEX
  8
MMIC_Label
  10
456.4
  20
317.49
  0
VERTEX
  8
MMIC_Label
  10
456.07
  20
319.8
  0
VERTEX
  8
MMIC_Label
  10
455.41
  20
322.11
  0
VERTEX
  8
MMIC_Label
  10
452.77
  20
325.41
  0
VERTEX
  8
MMIC_Label
  10
448.81
  20
327.39
  0
VERTEX
  8
MMIC_Label
  10
446.5
  20
328.05
  0
VERTEX
  8
MMIC_Label
  10
444.52
  20
328.05
  0
VERTEX
  8
MMIC_Label
  10
441.88
  20
327.72
  0
VERTEX
  8
MMIC_Label
  10
439.57
  20
327.06
  0
VERTEX
  8
MMIC_Label
  10
437.59
  20
325.74
  0
VERTEX
  8
MMIC_Label
  10
435.61
  20
324.09
  0
VERTEX
  8
MMIC_Label
  10
435.61
  20
326.07
  0
VERTEX
  8
MMIC_Label
  10
435.94
  20
327.72
  0
VERTEX
  8
MMIC_Label
  10
436.6
  20
329.7
  0
VERTEX
  8
MMIC_Label
  10
438.58
  20
333
  0
VERTEX
  8
MMIC_Label
  10
439.9
  20
333.99
  0
VERTEX
  8
MMIC_Label
  10
441.88
  20
334.98
  0
VERTEX
  8
MMIC_Label
  10
443.86
  20
335.31
  0
VERTEX
  8
MMIC_Label
  10
445.51
  20
334.98
  0
VERTEX
  8
MMIC_Label
  10
448.15
  20
333.66
  0
VERTEX
  8
MMIC_Label
  10
449.47
  20
332.34
  0
SEQEND
  0
POLYLINE
  8
MMIC_Label
  70
1
  66
1
  0
VERTEX
  8
MMIC_Label
  10
-352
  20
249.69
  0
VERTEX
  8
MMIC_Label
  10
-356.179
  20
257.326
  0
VERTEX
  8
MMIC_Label
  10
-352.296
  20
264.119
  0
VERTEX
  8
MMIC_Label
  10
-355.121
  20
264.119
  0
VERTEX
  8
MMIC_Label
  10
-357.014
  20
260.709
  0
VERTEX
  8
MMIC_Label
  10
-357.406
  20
260.016
  0
VERTEX
  8
MMIC_Label
  10
-357.871
  20
259.119
  0
VERTEX
  8
MMIC_Label
  10
-358.168
  20
259.772
  0
VERTEX
  8
MMIC_Label
  10
-358.654
  20
260.736
  0
VERTEX
  8
MMIC_Label
  10
-360.379
  20
264.119
  0
VERTEX
  8
MMIC_Label
  10
-363.309
  20
264.119
  0
VERTEX
  8
MMIC_Label
  10
-359.511
  20
257.19
  0
VERTEX
  8
MMIC_Label
  10
-363.616
  20
249.69
  0
VERTEX
  8
MMIC_Label
  10
-360.76
  20
249.69
  0
VERTEX
  8
MMIC_Label
  10
-357.808
  20
255.383
  0
VERTEX
  8
MMIC_Label
  10
-357.194
  20
254.174
  0
VERTEX
  8
MMIC_Label
  10
-354.888
  20
249.69
  0
SEQEND
  0
POLYLINE
  8
MMIC_Label
  70
1
  66
1
  0
VERTEX
  8
MMIC_Label
  10
398.19
  20
258.6
  0
VERTEX
  8
MMIC_Label
  10
408.09
  20
275.1
  0
VERTEX
  8
MMIC_Label
  10
398.19
  20
291.6
  0
VERTEX
  8
MMIC_Label
  10
405.45
  20
291.6
  0
VERTEX
  8
MMIC_Label
  10
412.05
  20
280.71
  0
VERTEX
  8
MMIC_Label
  10
418.65
  20
291.6
  0
VERTEX
  8
MMIC_Label
  10
425.58
  20
291.6
  0
VERTEX
  8
MMIC_Label
  10
415.68
  20
275.1
  0
VERTEX
  8
MMIC_Label
  10
425.58
  20
258.6
  0
VERTEX
  8
MMIC_Label
  10
418.65
  20
258.6
  0
VERTEX
  8
MMIC_Label
  10
412.05
  20
269.49
  0
VERTEX
  8
MMIC_Label
  10
405.45
  20
258.6
  0
SEQEND
  0
POLYLINE
  8
MMIC_Label
  70
1
  66
1
  0
VERTEX
  8
MMIC_Label
  10
450.46
  20
317.16
  0
VERTEX
  8
MMIC_Label
  10
450.13
  20
315.18
  0
VERTEX
  8
MMIC_Label
  10
449.47
  20
313.86
  0
VERTEX
  8
MMIC_Label
  10
448.48
  20
312.54
  0
VERTEX
  8
MMIC_Label
  10
447.49
  20
311.88
  0
VERTEX
  8
MMIC_Label
  10
445.84
  20
311.22
  0
VERTEX
  8
MMIC_Label
  10
444.52
  20
310.89
  0
VERTEX
  8
MMIC_Label
  10
442.87
  20
310.89
  0
VERTEX
  8
MMIC_Label
  10
441.22
  20
311.22
  0
VERTEX
  8
MMIC_Label
  10
438.58
  20
312.54
  0
VERTEX
  8
MMIC_Label
  10
437.59
  20
313.86
  0
VERTEX
  8
MMIC_Label
  10
436.93
  20
315.18
  0
VERTEX
  8
MMIC_Label
  10
436.6
  20
317.16
  0
VERTEX
  8
MMIC_Label
  10
436.93
  20
318.81
  0
VERTEX
  8
MMIC_Label
  10
437.59
  20
320.13
  0
VERTEX
  8
MMIC_Label
  10
438.58
  20
321.45
  0
VERTEX
  8
MMIC_Label
  10
441.22
  20
322.77
  0
VERTEX
  8
MMIC_Label
  10
442.87
  20
323.1
  0
VERTEX
  8
MMIC_Label
  10
444.52
  20
323.1
  0
VERTEX
  8
MMIC_Label
  10
445.84
  20
322.77
  0
VERTEX
  8
MMIC_Label
  10
447.49
  20
322.11
  0
VERTEX
  8
MMIC_Label
  10
448.48
  20
321.45
  0
VERTEX
  8
MMIC_Label
  10
449.47
  20
320.13
  0
VERTEX
  8
MMIC_Label
  10
450.13
  20
318.81
  0
SEQEND
  0
POLYLINE
  8
MMIC_Label
  70
1
  66
1
  0
VERTEX
  8
MMIC_Label
  10
-430.6
  20
339.6
  0
VERTEX
  8
MMIC_Label
  10
-275.6
  20
339.6
  0
VERTEX
  8
MMIC_Label
  10
-275.6
  20
275.2
  0
VERTEX
  8
MMIC_Label
  10
-430.6
  20
275.2
  0
SEQEND
  0
POLYLINE
  8
MMIC_Label
  70
1
  66
1
  0
VERTEX
  8
MMIC_Label
  10
-330.6
  20
330.3
  0
VERTEX
  8
MMIC_Label
  10
-315.6
  20
330.3
  0
VERTEX
  8
MMIC_Label
  10
-315.6
  20
315.3
  0
VERTEX
  8
MMIC_Label
  10
-330.6
  20
315.3
  0
SEQEND
  0
POLYLINE
  8
MMIC_Label
  70
1
  66
1
  0
VERTEX
  8
MMIC_Label
  10
-342.197
  20
256.63
  0
VERTEX
  8
MMIC_Label
  10
-349.507
  20
256.63
  0
VERTEX
  8
MMIC_Label
  10
-346.108
  20
263.92
  0
VERTEX
  8
MMIC_Label
  10
-345.86
  20
263.92
  0
VERTEX
  8
MMIC_Label
  10
-345.86
  20
259.09
  0
VERTEX
  8
MMIC_Label
  10
-343.341
  20
259.09
  0
VERTEX
  8
MMIC_Label
  10
-343.341
  20
269.79
  0
VERTEX
  8
MMIC_Label
  10
-345.52
  20
269.79
  0
VERTEX
  8
MMIC_Label
  10
-350.054
  20
260.203
  0
VERTEX
  8
MMIC_Label
  10
-351.686
  20
256.752
  0
VERTEX
  8
MMIC_Label
  10
-351.686
  20
254.379
  0
VERTEX
  8
MMIC_Label
  10
-346.53
  20
254.379
  0
VERTEX
  8
MMIC_Label
  10
-346.53
  20
249.59
  0
VERTEX
  8
MMIC_Label
  10
-344.011
  20
249.59
  0
VERTEX
  8
MMIC_Label
  10
-344.011
  20
254.379
  0
VERTEX
  8
MMIC_Label
  10
-342.197
  20
254.379
  0
SEQEND
  0
POLYLINE
  8
MMIC_Label
  70
1
  66
1
  0
VERTEX
  8
MMIC_Label
  10
343.15
  20
258.6
  0
VERTEX
  8
MMIC_Label
  10
343.15
  20
285.99
  0
VERTEX
  8
MMIC_Label
  10
332.59
  20
285.99
  0
VERTEX
  8
MMIC_Label
  10
332.59
  20
291.6
  0
VERTEX
  8
MMIC_Label
  10
359.98
  20
291.6
  0
VERTEX
  8
MMIC_Label
  10
359.98
  20
285.99
  0
VERTEX
  8
MMIC_Label
  10
349.75
  20
285.99
  0
VERTEX
  8
MMIC_Label
  10
349.75
  20
258.6
  0
SEQEND
  0
POLYLINE
  8
MMIC_Label
  70
1
  66
1
  0
VERTEX
  8
MMIC_Label
  10
-325.428
  20
249.69
  0
VERTEX
  8
MMIC_Label
  10
-329.607
  20
257.326
  0
VERTEX
  8
MMIC_Label
  10
-325.724
  20
264.119
  0
VERTEX
  8
MMIC_Label
  10
-328.549
  20
264.119
  0
VERTEX
  8
MMIC_Label
  10
-330.442
  20
260.709
  0
VERTEX
  8
MMIC_Label
  10
-330.834
  20
260.016
  0
VERTEX
  8
MMIC_Label
  10
-331.299
  20
259.119
  0
VERTEX
  8
MMIC_Label
  10
-331.596
  20
259.772
  0
VERTEX
  8
MMIC_Label
  10
-332.082
  20
260.736
  0
VERTEX
  8
MMIC_Label
  10
-333.807
  20
264.119
  0
VERTEX
  8
MMIC_Label
  10
-336.737
  20
264.119
  0
VERTEX
  8
MMIC_Label
  10
-332.939
  20
257.19
  0
VERTEX
  8
MMIC_Label
  10
-337.044
  20
249.69
  0
VERTEX
  8
MMIC_Label
  10
-334.188
  20
249.69
  0
VERTEX
  8
MMIC_Label
  10
-331.236
  20
255.383
  0
VERTEX
  8
MMIC_Label
  10
-330.622
  20
254.174
  0
VERTEX
  8
MMIC_Label
  10
-328.316
  20
249.69
  0
SEQEND
  0
POLYLINE
  8
MMIC_Label
  70
1
  66
1
  0
VERTEX
  8
MMIC_Label
  10
294.38
  20
281.04
  0
VERTEX
  8
MMIC_Label
  10
293.72
  20
283.35
  0
VERTEX
  8
MMIC_Label
  10
292.73
  20
285.66
  0
VERTEX
  8
MMIC_Label
  10
291.41
  20
287.31
  0
VERTEX
  8
MMIC_Label
  10
289.76
  20
288.96
  0
VERTEX
  8
MMIC_Label
  10
288.11
  20
290.28
  0
VERTEX
  8
MMIC_Label
  10
285.8
  20
291.27
  0
VERTEX
  8
MMIC_Label
  10
283.82
  20
291.6
  0
VERTEX
  8
MMIC_Label
  10
278.54
  20
291.6
  0
VERTEX
  8
MMIC_Label
  10
276.23
  20
291.27
  0
VERTEX
  8
MMIC_Label
  10
273.92
  20
289.95
  0
VERTEX
  8
MMIC_Label
  10
272.27
  20
288.63
  0
VERTEX
  8
MMIC_Label
  10
270.62
  20
286.98
  0
VERTEX
  8
MMIC_Label
  10
269.3
  20
284.67
  0
VERTEX
  8
MMIC_Label
  10
268.31
  20
282.69
  0
VERTEX
  8
MMIC_Label
  10
267.65
  20
280.05
  0
VERTEX
  8
MMIC_Label
  10
267.32
  20
277.74
  0
VERTEX
  8
MMIC_Label
  10
266.99
  20
275.1
  0
VERTEX
  8
MMIC_Label
  10
267.32
  20
272.46
  0
VERTEX
  8
MMIC_Label
  10
267.65
  20
270.15
  0
VERTEX
  8
MMIC_Label
  10
268.31
  20
267.51
  0
VERTEX
  8
MMIC_Label
  10
269.3
  20
265.53
  0
VERTEX
  8
MMIC_Label
  10
270.62
  20
263.22
  0
VERTEX
  8
MMIC_Label
  10
272.27
  20
261.57
  0
VERTEX
  8
MMIC_Label
  10
273.92
  20
260.25
  0
VERTEX
  8
MMIC_Label
  10
276.23
  20
258.93
  0
VERTEX
  8
MMIC_Label
  10
278.54
  20
258.6
  0
VERTEX
  8
MMIC_Label
  10
283.16
  20
258.6
  0
VERTEX
  8
MMIC_Label
  10
285.14
  20
258.93
  0
VERTEX
  8
MMIC_Label
  10
288.44
  20
260.91
  0
VERTEX
  8
MMIC_Label
  10
289.43
  20
262.56
  0
VERTEX
  8
MMIC_Label
  10
290.75
  20
258.6
  0
VERTEX
  8
MMIC_Label
  10
294.38
  20
258.6
  0
VERTEX
  8
MMIC_Label
  10
294.38
  20
275.1
  0
VERTEX
  8
MMIC_Label
  10
281.84
  20
275.1
  0
VERTEX
  8
MMIC_Label
  10
281.84
  20
270.15
  0
VERTEX
  8
MMIC_Label
  10
287.78
  20
270.15
  0
VERTEX
  8
MMIC_Label
  10
287.45
  20
268.5
  0
VERTEX
  8
MMIC_Label
  10
286.79
  20
266.85
  0
VERTEX
  8
MMIC_Label
  10
285.8
  20
265.53
  0
VERTEX
  8
MMIC_Label
  10
284.48
  20
264.54
  0
VERTEX
  8
MMIC_Label
  10
283.16
  20
263.88
  0
VERTEX
  8
MMIC_Label
  10
281.18
  20
263.55
  0
VERTEX
  8
MMIC_Label
  10
279.53
  20
263.88
  0
VERTEX
  8
MMIC_Label
  10
277.88
  20
264.54
  0
VERTEX
  8
MMIC_Label
  10
276.56
  20
265.53
  0
VERTEX
  8
MMIC_Label
  10
275.24
  20
267.18
  0
VERTEX
  8
MMIC_Label
  10
274.58
  20
268.83
  0
VERTEX
  8
MMIC_Label
  10
273.92
  20
270.81
  0
VERTEX
  8
MMIC_Label
  10
273.59
  20
272.79
  0
VERTEX
  8
MMIC_Label
  10
273.59
  20
277.41
  0
VERTEX
  8
MMIC_Label
  10
273.92
  20
279.39
  0
VERTEX
  8
MMIC_Label
  10
274.58
  20
281.37
  0
VERTEX
  8
MMIC_Label
  10
275.24
  20
283.02
  0
VERTEX
  8
MMIC_Label
  10
276.56
  20
284.67
  0
VERTEX
  8
MMIC_Label
  10
277.88
  20
285.66
  0
VERTEX
  8
MMIC_Label
  10
279.53
  20
286.32
  0
VERTEX
  8
MMIC_Label
  10
281.18
  20
286.65
  0
VERTEX
  8
MMIC_Label
  10
283.16
  20
286.32
  0
VERTEX
  8
MMIC_Label
  10
284.81
  20
285.33
  0
VERTEX
  8
MMIC_Label
  10
286.13
  20
284.34
  0
VERTEX
  8
MMIC_Label
  10
287.12
  20
282.69
  0
VERTEX
  8
MMIC_Label
  10
287.78
  20
281.04
  0
SEQEND
  0
POLYLINE
  8
MMIC_Label
  70
1
  66
1
  0
VERTEX
  8
MMIC_Label
  10
-455.6
  20
275.2
  0
VERTEX
  8
MMIC_Label
  10
-455.6
  20
339.6
  0
VERTEX
  8
MMIC_Label
  10
-460.6
  20
339.6
  0
VERTEX
  8
MMIC_Label
  10
-460.6
  20
275.2
  0
SEQEND
  0
POLYLINE
  8
MMIC_Label
  70
1
  66
1
  0
VERTEX
  8
MMIC_Label
  10
-395.6
  20
275.2
  0
VERTEX
  8
MMIC_Label
  10
-395.6
  20
339.6
  0
VERTEX
  8
MMIC_Label
  10
-400.6
  20
339.6
  0
VERTEX
  8
MMIC_Label
  10
-400.6
  20
275.2
  0
SEQEND
  0
POLYLINE
  8
MMIC_Label
  70
1
  66
1
  0
VERTEX
  8
MMIC_Label
  10
-300.6
  20
300.3
  0
VERTEX
  8
MMIC_Label
  10
-285.6
  20
300.3
  0
VERTEX
  8
MMIC_Label
  10
-285.6
  20
285.3
  0
VERTEX
  8
MMIC_Label
  10
-300.6
  20
285.3
  0
SEQEND
  0
POLYLINE
  8
MMIC_Label
  70
1
  66
1
  0
VERTEX
  8
MMIC_Label
  10
-355.6
  20
280.2
  0
VERTEX
  8
MMIC_Label
  10
-380.6
  20
280.2
  0
VERTEX
  8
MMIC_Label
  10
-380.6
  20
275.2
  0
VERTEX
  8
MMIC_Label
  10
-355.6
  20
275.2
  0
SEQEND
  0
POLYLINE
  8
MMIC_Label
  70
1
  66
1
  0
VERTEX
  8
MMIC_Label
  10
-420.6
  20
300.3
  0
VERTEX
  8
MMIC_Label
  10
-405.6
  20
300.3
  0
VERTEX
  8
MMIC_Label
  10
-405.6
  20
285.3
  0
VERTEX
  8
MMIC_Label
  10
-420.6
  20
285.3
  0
SEQEND
  0
POLYLINE
  8
MMIC_Label
  70
1
  66
1
  0
VERTEX
  8
MMIC_Label
  10
430.99
  20
258.6
  0
VERTEX
  8
MMIC_Label
  10
440.89
  20
275.1
  0
VERTEX
  8
MMIC_Label
  10
430.99
  20
291.6
  0
VERTEX
  8
MMIC_Label
  10
438.25
  20
291.6
  0
VERTEX
  8
MMIC_Label
  10
444.85
  20
280.71
  0
VERTEX
  8
MMIC_Label
  10
451.45
  20
291.6
  0
VERTEX
  8
MMIC_Label
  10
458.38
  20
291.6
  0
VERTEX
  8
MMIC_Label
  10
448.48
  20
275.1
  0
VERTEX
  8
MMIC_Label
  10
458.38
  20
258.6
  0
VERTEX
  8
MMIC_Label
  10
451.45
  20
258.6
  0
VERTEX
  8
MMIC_Label
  10
444.85
  20
269.49
  0
VERTEX
  8
MMIC_Label
  10
438.25
  20
258.6
  0
SEQEND
  0
POLYLINE
  8
MMIC_Label
  70
1
  66
1
  0
VERTEX
  8
MMIC_Label
  10
-390.6
  20
330.3
  0
VERTEX
  8
MMIC_Label
  10
-375.6
  20
330.3
  0
VERTEX
  8
MMIC_Label
  10
-375.6
  20
315.3
  0
VERTEX
  8
MMIC_Label
  10
-390.6
  20
315.3
  0
SEQEND
  0
POLYLINE
  8
MMIC_Label
  70
1
  66
1
  0
VERTEX
  8
MMIC_Label
  10
395.8
  20
329.04
  0
VERTEX
  8
MMIC_Label
  10
395.14
  20
331.35
  0
VERTEX
  8
MMIC_Label
  10
394.15
  20
333.66
  0
VERTEX
  8
MMIC_Label
  10
392.83
  20
335.31
  0
VERTEX
  8
MMIC_Label
  10
391.18
  20
336.96
  0
VERTEX
  8
MMIC_Label
  10
389.53
  20
338.28
  0
VERTEX
  8
MMIC_Label
  10
387.22
  20
339.27
  0
VERTEX
  8
MMIC_Label
  10
385.24
  20
339.6
  0
VERTEX
  8
MMIC_Label
  10
379.96
  20
339.6
  0
VERTEX
  8
MMIC_Label
  10
377.65
  20
339.27
  0
VERTEX
  8
MMIC_Label
  10
375.34
  20
337.95
  0
VERTEX
  8
MMIC_Label
  10
373.69
  20
336.63
  0
VERTEX
  8
MMIC_Label
  10
372.04
  20
334.98
  0
VERTEX
  8
MMIC_Label
  10
370.72
  20
332.67
  0
VERTEX
  8
MMIC_Label
  10
369.73
  20
330.69
  0
VERTEX
  8
MMIC_Label
  10
369.07
  20
328.05
  0
VERTEX
  8
MMIC_Label
  10
368.74
  20
325.74
  0
VERTEX
  8
MMIC_Label
  10
368.41
  20
323.1
  0
VERTEX
  8
MMIC_Label
  10
368.74
  20
320.46
  0
VERTEX
  8
MMIC_Label
  10
369.07
  20
318.15
  0
VERTEX
  8
MMIC_Label
  10
369.73
  20
315.51
  0
VERTEX
  8
MMIC_Label
  10
370.72
  20
313.53
  0
VERTEX
  8
MMIC_Label
  10
372.04
  20
311.22
  0
VERTEX
  8
MMIC_Label
  10
373.69
  20
309.57
  0
VERTEX
  8
MMIC_Label
  10
375.34
  20
308.25
  0
VERTEX
  8
MMIC_Label
  10
377.65
  20
306.93
  0
VERTEX
  8
MMIC_Label
  10
379.96
  20
306.6
  0
VERTEX
  8
MMIC_Label
  10
384.58
  20
306.6
  0
VERTEX
  8
MMIC_Label
  10
386.56
  20
306.93
  0
VERTEX
  8
MMIC_Label
  10
389.86
  20
308.91
  0
VERTEX
  8
MMIC_Label
  10
390.85
  20
310.56
  0
VERTEX
  8
MMIC_Label
  10
392.17
  20
306.6
  0
VERTEX
  8
MMIC_Label
  10
395.8
  20
306.6
  0
VERTEX
  8
MMIC_Label
  10
395.8
  20
323.1
  0
VERTEX
  8
MMIC_Label
  10
383.26
  20
323.1
  0
VERTEX
  8
MMIC_Label
  10
383.26
  20
318.15
  0
VERTEX
  8
MMIC_Label
  10
389.2
  20
318.15
  0
VERTEX
  8
MMIC_Label
  10
388.87
  20
316.5
  0
VERTEX
  8
MMIC_Label
  10
388.21
  20
314.85
  0
VERTEX
  8
MMIC_Label
  10
387.22
  20
313.53
  0
VERTEX
  8
MMIC_Label
  10
385.9
  20
312.54
  0
VERTEX
  8
MMIC_Label
  10
384.58
  20
311.88
  0
VERTEX
  8
MMIC_Label
  10
382.6
  20
311.55
  0
VERTEX
  8
MMIC_Label
  10
380.95
  20
311.88
  0
VERTEX
  8
MMIC_Label
  10
379.3
  20
312.54
  0
VERTEX
  8
MMIC_Label
  10
377.98
  20
313.53
  0
VERTEX
  8
MMIC_Label
  10
376.66
  20
315.18
  0
VERTEX
  8
MMIC_Label
  10
376
  20
316.83
  0
VERTEX
  8
MMIC_Label
  10
375.34
  20
318.81
  0
VERTEX
  8
MMIC_Label
  10
375.01
  20
320.79
  0
VERTEX
  8
MMIC_Label
  10
375.01
  20
325.41
  0
VERTEX
  8
MMIC_Label
  10
375.34
  20
327.39
  0
VERTEX
  8
MMIC_Label
  10
376
  20
329.37
  0
VERTEX
  8
MMIC_Label
  10
376.66
  20
331.02
  0
VERTEX
  8
MMIC_Label
  10
377.98
  20
332.67
  0
VERTEX
  8
MMIC_Label
  10
379.3
  20
333.66
  0
VERTEX
  8
MMIC_Label
  10
380.95
  20
334.32
  0
VERTEX
  8
MMIC_Label
  10
382.6
  20
334.65
  0
VERTEX
  8
MMIC_Label
  10
384.58
  20
334.32
  0
VERTEX
  8
MMIC_Label
  10
386.23
  20
333.33
  0
VERTEX
  8
MMIC_Label
  10
387.55
  20
332.34
  0
VERTEX
  8
MMIC_Label
  10
388.54
  20
330.69
  0
VERTEX
  8
MMIC_Label
  10
389.2
  20
329.04
  0
SEQEND
  0
POLYLINE
  8
MMIC_Label
  70
1
  66
1
  0
VERTEX
  8
MMIC_Label
  10
-300.6
  20
330.3
  0
VERTEX
  8
MMIC_Label
  10
-285.6
  20
330.3
  0
VERTEX
  8
MMIC_Label
  10
-285.6
  20
315.3
  0
VERTEX
  8
MMIC_Label
  10
-300.6
  20
315.3
  0
SEQEND
  0
POLYLINE
  8
MMIC_Label
  70
1
  66
1
  0
VERTEX
  8
MMIC_Label
  10
335.61
  20
306.6
  0
VERTEX
  8
MMIC_Label
  10
345.51
  20
339.6
  0
VERTEX
  8
MMIC_Label
  10
353.1
  20
339.6
  0
VERTEX
  8
MMIC_Label
  10
363
  20
306.6
  0
VERTEX
  8
MMIC_Label
  10
356.07
  20
306.6
  0
VERTEX
  8
MMIC_Label
  10
354.42
  20
313.2
  0
VERTEX
  8
MMIC_Label
  10
344.52
  20
313.2
  0
VERTEX
  8
MMIC_Label
  10
342.87
  20
306.6
  0
SEQEND
  0
POLYLINE
  8
MMIC_Label
  70
1
  66
1
  0
VERTEX
  8
MMIC_Label
  10
-315.252
  20
257.467
  0
VERTEX
  8
MMIC_Label
  10
-315.89
  20
258.766
  0
VERTEX
  8
MMIC_Label
  10
-316.534
  20
260.073
  0
VERTEX
  8
MMIC_Label
  10
-317.591
  20
260.578
  0
VERTEX
  8
MMIC_Label
  10
-316.764
  20
261.034
  0
VERTEX
  8
MMIC_Label
  10
-316.274
  20
262.044
  0
VERTEX
  8
MMIC_Label
  10
-315.788
  20
263.049
  0
VERTEX
  8
MMIC_Label
  10
-315.788
  20
266.516
  0
VERTEX
  8
MMIC_Label
  10
-316.849
  20
267.996
  0
VERTEX
  8
MMIC_Label
  10
-317.454
  20
268.84
  0
VERTEX
  8
MMIC_Label
  10
-317.921
  20
269.49
  0
VERTEX
  8
MMIC_Label
  10
-318.665
  20
269.49
  0
VERTEX
  8
MMIC_Label
  10
-318.665
  20
267.156
  0
VERTEX
  8
MMIC_Label
  10
-318.228
  20
266.525
  0
VERTEX
  8
MMIC_Label
  10
-318.066
  20
266.292
  0
VERTEX
  8
MMIC_Label
  10
-318.066
  20
262.587
  0
VERTEX
  8
MMIC_Label
  10
-318.21
  20
262.379
  0
VERTEX
  8
MMIC_Label
  10
-318.432
  20
262.06
  0
VERTEX
  8
MMIC_Label
  10
-320.887
  20
262.06
  0
VERTEX
  8
MMIC_Label
  10
-321.114
  20
262.387
  0
VERTEX
  8
MMIC_Label
  10
-321.294
  20
262.646
  0
VERTEX
  8
MMIC_Label
  10
-321.294
  20
266.278
  0
VERTEX
  8
MMIC_Label
  10
-320.665
  20
267.171
  0
VERTEX
  8
MMIC_Label
  10
-320.665
  20
269.49
  0
VERTEX
  8
MMIC_Label
  10
-321.435
  20
269.49
  0
VERTEX
  8
MMIC_Label
  10
-322.489
  20
268.029
  0
VERTEX
  8
MMIC_Label
  10
-323.534
  20
266.582
  0
VERTEX
  8
MMIC_Label
  10
-323.534
  20
263.063
  0
VERTEX
  8
MMIC_Label
  10
-322.546
  20
261.033
  0
VERTEX
  8
MMIC_Label
  10
-321.841
  20
260.654
  0
VERTEX
  8
MMIC_Label
  10
-321.714
  20
260.586
  0
VERTEX
  8
MMIC_Label
  10
-322.739
  20
260.194
  0
VERTEX
  8
MMIC_Label
  10
-323.403
  20
258.904
  0
VERTEX
  8
MMIC_Label
  10
-324.058
  20
257.626
  0
VERTEX
  8
MMIC_Label
  10
-324.058
  20
253.204
  0
VERTEX
  8
MMIC_Label
  10
-322.856
  20
251.507
  0
VERTEX
  8
MMIC_Label
  10
-322.394
  20
250.85
  0
VERTEX
  8
MMIC_Label
  10
-321.64
  20
249.79
  0
VERTEX
  8
MMIC_Label
  10
-320.543
  20
249.79
  0
VERTEX
  8
MMIC_Label
  10
-320.543
  20
252.079
  0
VERTEX
  8
MMIC_Label
  10
-320.955
  20
252.41
  0
VERTEX
  8
MMIC_Label
  10
-321.303
  20
252.689
  0
VERTEX
  8
MMIC_Label
  10
-321.912
  20
254.439
  0
VERTEX
  8
MMIC_Label
  10
-321.912
  20
257.775
  0
VERTEX
  8
MMIC_Label
  10
-321.483
  20
258.404
  0
VERTEX
  8
MMIC_Label
  10
-320.771
  20
259.454
  0
VERTEX
  8
MMIC_Label
  10
-318.586
  20
259.454
  0
VERTEX
  8
MMIC_Label
  10
-317.844
  20
258.391
  0
VERTEX
  8
MMIC_Label
  10
-317.432
  20
257.798
  0
VERTEX
  8
MMIC_Label
  10
-317.432
  20
253.52
  0
VERTEX
  8
MMIC_Label
  10
-317.822
  20
252.955
  0
VERTEX
  8
MMIC_Label
  10
-318.542
  20
251.918
  0
VERTEX
  8
MMIC_Label
  10
-318.542
  20
249.79
  0
VERTEX
  8
MMIC_Label
  10
-317.67
  20
249.79
  0
VERTEX
  8
MMIC_Label
  10
-316.456
  20
251.498
  0
VERTEX
  8
MMIC_Label
  10
-315.252
  20
253.192
  0
SEQEND
  0
POLYLINE
  8
MMIC_Label
  70
1
  66
1
  0
VERTEX
  8
MMIC_Label
  10
-404.528
  20
269.79
  0
VERTEX
  8
MMIC_Label
  10
-405.924
  20
269.79
  0
VERTEX
  8
MMIC_Label
  10
-406.44
  20
268.451
  0
VERTEX
  8
MMIC_Label
  10
-407.623
  20
267.093
  0
VERTEX
  8
MMIC_Label
  10
-408.809
  20
265.732
  0
VERTEX
  8
MMIC_Label
  10
-410.441
  20
264.746
  0
VERTEX
  8
MMIC_Label
  10
-410.441
  20
262.222
  0
VERTEX
  8
MMIC_Label
  10
-410.417
  20
262.206
  0
VERTEX
  8
MMIC_Label
  10
-410.392
  20
262.191
  0
VERTEX
  8
MMIC_Label
  10
-409.401
  20
262.661
  0
VERTEX
  8
MMIC_Label
  10
-408.276
  20
263.509
  0
VERTEX
  8
MMIC_Label
  10
-407.15
  20
264.359
  0
VERTEX
  8
MMIC_Label
  10
-406.632
  20
264.993
  0
VERTEX
  8
MMIC_Label
  10
-406.632
  20
249.59
  0
VERTEX
  8
MMIC_Label
  10
-404.528
  20
249.59
  0
SEQEND
  0
POLYLINE
  8
MMIC_Label
  70
1
  66
1
  0
VERTEX
  8
MMIC_Label
  10
-360.6
  20
330.3
  0
VERTEX
  8
MMIC_Label
  10
-345.6
  20
330.3
  0
VERTEX
  8
MMIC_Label
  10
-345.6
  20
315.3
  0
VERTEX
  8
MMIC_Label
  10
-360.6
  20
315.3
  0
SEQEND
  0
POLYLINE
  8
MMIC_Label
  70
1
  66
1
  0
VERTEX
  8
MMIC_Label
  10
294.38
  20
281.04
  0
VERTEX
  8
MMIC_Label
  10
293.72
  20
283.35
  0
VERTEX
  8
MMIC_Label
  10
292.73
  20
285.66
  0
VERTEX
  8
MMIC_Label
  10
291.41
  20
287.31
  0
VERTEX
  8
MMIC_Label
  10
289.76
  20
288.96
  0
VERTEX
  8
MMIC_Label
  10
288.11
  20
290.28
  0
VERTEX
  8
MMIC_Label
  10
285.8
  20
291.27
  0
VERTEX
  8
MMIC_Label
  10
283.82
  20
291.6
  0
VERTEX
  8
MMIC_Label
  10
278.54
  20
291.6
  0
VERTEX
  8
MMIC_Label
  10
276.23
  20
291.27
  0
VERTEX
  8
MMIC_Label
  10
273.92
  20
289.95
  0
VERTEX
  8
MMIC_Label
  10
272.27
  20
288.63
  0
VERTEX
  8
MMIC_Label
  10
270.62
  20
286.98
  0
VERTEX
  8
MMIC_Label
  10
269.3
  20
284.67
  0
VERTEX
  8
MMIC_Label
  10
268.31
  20
282.69
  0
VERTEX
  8
MMIC_Label
  10
267.65
  20
280.05
  0
VERTEX
  8
MMIC_Label
  10
267.32
  20
277.74
  0
VERTEX
  8
MMIC_Label
  10
266.99
  20
275.1
  0
VERTEX
  8
MMIC_Label
  10
267.32
  20
272.46
  0
VERTEX
  8
MMIC_Label
  10
267.65
  20
270.15
  0
VERTEX
  8
MMIC_Label
  10
268.31
  20
267.51
  0
VERTEX
  8
MMIC_Label
  10
269.3
  20
265.53
  0
VERTEX
  8
MMIC_Label
  10
270.62
  20
263.22
  0
VERTEX
  8
MMIC_Label
  10
272.27
  20
261.57
  0
VERTEX
  8
MMIC_Label
  10
273.92
  20
260.25
  0
VERTEX
  8
MMIC_Label
  10
276.23
  20
258.93
  0
VERTEX
  8
MMIC_Label
  10
278.54
  20
258.6
  0
VERTEX
  8
MMIC_Label
  10
283.16
  20
258.6
  0
VERTEX
  8
MMIC_Label
  10
285.14
  20
258.93
  0
VERTEX
  8
MMIC_Label
  10
288.44
  20
260.91
  0
VERTEX
  8
MMIC_Label
  10
289.43
  20
262.56
  0
VERTEX
  8
MMIC_Label
  10
290.75
  20
258.6
  0
VERTEX
  8
MMIC_Label
  10
294.38
  20
258.6
  0
VERTEX
  8
MMIC_Label
  10
294.38
  20
275.1
  0
VERTEX
  8
MMIC_Label
  10
281.84
  20
275.1
  0
VERTEX
  8
MMIC_Label
  10
281.84
  20
270.15
  0
VERTEX
  8
MMIC_Label
  10
287.78
  20
270.15
  0
VERTEX
  8
MMIC_Label
  10
287.45
  20
268.5
  0
VERTEX
  8
MMIC_Label
  10
286.79
  20
266.85
  0
VERTEX
  8
MMIC_Label
  10
285.8
  20
265.53
  0
VERTEX
  8
MMIC_Label
  10
284.48
  20
264.54
  0
VERTEX
  8
MMIC_Label
  10
283.16
  20
263.88
  0
VERTEX
  8
MMIC_Label
  10
281.18
  20
263.55
  0
VERTEX
  8
MMIC_Label
  10
279.53
  20
263.88
  0
VERTEX
  8
MMIC_Label
  10
277.88
  20
264.54
  0
VERTEX
  8
MMIC_Label
  10
276.56
  20
265.53
  0
VERTEX
  8
MMIC_Label
  10
275.24
  20
267.18
  0
VERTEX
  8
MMIC_Label
  10
274.58
  20
268.83
  0
VERTEX
  8
MMIC_Label
  10
273.92
  20
270.81
  0
VERTEX
  8
MMIC_Label
  10
273.59
  20
272.79
  0
VERTEX
  8
MMIC_Label
  10
273.59
  20
277.41
  0
VERTEX
  8
MMIC_Label
  10
273.92
  20
279.39
  0
VERTEX
  8
MMIC_Label
  10
274.58
  20
281.37
  0
VERTEX
  8
MMIC_Label
  10
275.24
  20
283.02
  0
VERTEX
  8
MMIC_Label
  10
276.56
  20
284.67
  0
VERTEX
  8
MMIC_Label
  10
277.88
  20
285.66
  0
VERTEX
  8
MMIC_Label
  10
279.53
  20
286.32
  0
VERTEX
  8
MMIC_Label
  10
281.18
  20
286.65
  0
VERTEX
  8
MMIC_Label
  10
283.16
  20
286.32
  0
VERTEX
  8
MMIC_Label
  10
284.81
  20
285.33
  0
VERTEX
  8
MMIC_Label
  10
286.13
  20
284.34
  0
VERTEX
  8
MMIC_Label
  10
287.12
  20
282.69
  0
VERTEX
  8
MMIC_Label
  10
287.78
  20
281.04
  0
SEQEND
  0
POLYLINE
  8
MMIC_Label
  70
1
  66
1
  0
VERTEX
  8
MMIC_Label
  10
-372.318
  20
252.141
  0
VERTEX
  8
MMIC_Label
  10
-378.883
  20
252.141
  0
VERTEX
  8
MMIC_Label
  10
-378.667
  20
252.662
  0
VERTEX
  8
MMIC_Label
  10
-377.832
  20
253.962
  0
VERTEX
  8
MMIC_Label
  10
-376.342
  20
255.809
  0
VERTEX
  8
MMIC_Label
  10
-374.553
  20
258.043
  0
VERTEX
  8
MMIC_Label
  10
-373.781
  20
259.327
  0
VERTEX
  8
MMIC_Label
  10
-373.007
  20
260.615
  0
VERTEX
  8
MMIC_Label
  10
-372.672
  20
261.783
  0
VERTEX
  8
MMIC_Label
  10
-372.336
  20
262.95
  0
VERTEX
  8
MMIC_Label
  10
-372.336
  20
266.543
  0
VERTEX
  8
MMIC_Label
  10
-373.486
  20
268.158
  0
VERTEX
  8
MMIC_Label
  10
-374.648
  20
269.79
  0
VERTEX
  8
MMIC_Label
  10
-378.613
  20
269.79
  0
VERTEX
  8
MMIC_Label
  10
-380.944
  20
266.779
  0
VERTEX
  8
MMIC_Label
  10
-381.125
  20
263.844
  0
VERTEX
  8
MMIC_Label
  10
-379.234
  20
263.557
  0
VERTEX
  8
MMIC_Label
  10
-379.226
  20
263.564
  0
VERTEX
  8
MMIC_Label
  10
-379.218
  20
263.57
  0
VERTEX
  8
MMIC_Label
  10
-379.209
  20
265.515
  0
VERTEX
  8
MMIC_Label
  10
-378.509
  20
266.55
  0
VERTEX
  8
MMIC_Label
  10
-378.118
  20
267.126
  0
VERTEX
  8
MMIC_Label
  10
-375.287
  20
267.126
  0
VERTEX
  8
MMIC_Label
  10
-374.578
  20
266.12
  0
VERTEX
  8
MMIC_Label
  10
-374.578
  20
262.168
  0
VERTEX
  8
MMIC_Label
  10
-375.768
  20
259.772
  0
VERTEX
  8
MMIC_Label
  10
-377.959
  20
257.118
  0
VERTEX
  8
MMIC_Label
  10
-377.96
  20
257.118
  0
VERTEX
  8
MMIC_Label
  10
-379.382
  20
255.399
  0
VERTEX
  8
MMIC_Label
  10
-380.137
  20
254.088
  0
VERTEX
  8
MMIC_Label
  10
-380.894
  20
252.771
  0
VERTEX
  8
MMIC_Label
  10
-381.236
  20
251.415
  0
VERTEX
  8
MMIC_Label
  10
-381.452
  20
250.585
  0
VERTEX
  8
MMIC_Label
  10
-381.431
  20
249.59
  0
VERTEX
  8
MMIC_Label
  10
-372.318
  20
249.59
  0
SEQEND
  0
POLYLINE
  8
MMIC_Label
  70
1
  66
1
  0
VERTEX
  8
MMIC_Label
  10
-290.575
  20
269.79
  0
VERTEX
  8
MMIC_Label
  10
-292.991
  20
269.79
  0
VERTEX
  8
MMIC_Label
  10
-294.317
  20
266.351
  0
VERTEX
  8
MMIC_Label
  10
-294.856
  20
265.732
  0
VERTEX
  8
MMIC_Label
  10
-296.488
  20
264.746
  0
VERTEX
  8
MMIC_Label
  10
-296.488
  20
262.222
  0
VERTEX
  8
MMIC_Label
  10
-296.464
  20
262.206
  0
VERTEX
  8
MMIC_Label
  10
-296.439
  20
262.191
  0
VERTEX
  8
MMIC_Label
  10
-295.448
  20
262.661
  0
VERTEX
  8
MMIC_Label
  10
-294.323
  20
263.509
  0
VERTEX
  8
MMIC_Label
  10
-294.319
  20
263.512
  0
VERTEX
  8
MMIC_Label
  10
-294.037
  20
263.857
  0
VERTEX
  8
MMIC_Label
  10
-294.037
  20
263.82
  0
VERTEX
  8
MMIC_Label
  10
-293.109
  20
263.82
  0
VERTEX
  8
MMIC_Label
  10
-293.109
  20
249.59
  0
VERTEX
  8
MMIC_Label
  10
-290.575
  20
249.59
  0
SEQEND
  0
POLYLINE
  8
MMIC_Label
  70
1
  66
1
  0
VERTEX
  8
MMIC_Label
  10
-383.84
  20
249.69
  0
VERTEX
  8
MMIC_Label
  10
-388.019
  20
257.326
  0
VERTEX
  8
MMIC_Label
  10
-384.136
  20
264.119
  0
VERTEX
  8
MMIC_Label
  10
-386.961
  20
264.119
  0
VERTEX
  8
MMIC_Label
  10
-388.854
  20
260.709
  0
VERTEX
  8
MMIC_Label
  10
-389.246
  20
260.016
  0
VERTEX
  8
MMIC_Label
  10
-389.711
  20
259.119
  0
VERTEX
  8
MMIC_Label
  10
-390.008
  20
259.772
  0
VERTEX
  8
MMIC_Label
  10
-390.494
  20
260.736
  0
VERTEX
  8
MMIC_Label
  10
-392.219
  20
264.119
  0
VERTEX
  8
MMIC_Label
  10
-395.149
  20
264.119
  0
VERTEX
  8
MMIC_Label
  10
-391.351
  20
257.19
  0
VERTEX
  8
MMIC_Label
  10
-395.456
  20
249.69
  0
VERTEX
  8
MMIC_Label
  10
-392.6
  20
249.69
  0
VERTEX
  8
MMIC_Label
  10
-389.648
  20
255.383
  0
VERTEX
  8
MMIC_Label
  10
-389.034
  20
254.174
  0
VERTEX
  8
MMIC_Label
  10
-386.728
  20
249.69
  0
SEQEND
  0
POLYLINE
  8
MMIC_Label
  70
1
  66
1
  0
VERTEX
  8
MMIC_Label
  10
-425.6
  20
275.2
  0
VERTEX
  8
MMIC_Label
  10
-425.6
  20
339.6
  0
VERTEX
  8
MMIC_Label
  10
-430.6
  20
339.6
  0
VERTEX
  8
MMIC_Label
  10
-430.6
  20
275.2
  0
SEQEND
  0
POLYLINE
  8
MMIC_Label
  70
1
  66
1
  0
VERTEX
  8
MMIC_Label
  10
309.69
  20
270.15
  0
VERTEX
  8
MMIC_Label
  10
313.65
  20
284.34
  0
VERTEX
  8
MMIC_Label
  10
317.28
  20
270.15
  0
SEQEND
  0
POLYLINE
  8
MMIC_Label
  70
1
  66
1
  0
VERTEX
  8
MMIC_Label
  10
244.09
  20
270.15
  0
VERTEX
  8
MMIC_Label
  10
248.05
  20
284.34
  0
VERTEX
  8
MMIC_Label
  10
251.68
  20
270.15
  0
SEQEND
  0
POLYLINE
  8
MMIC_Label
  70
1
  66
1
  0
VERTEX
  8
MMIC_Label
  10
-420.6
  20
330.3
  0
VERTEX
  8
MMIC_Label
  10
-405.6
  20
330.3
  0
VERTEX
  8
MMIC_Label
  10
-405.6
  20
315.3
  0
VERTEX
  8
MMIC_Label
  10
-420.6
  20
315.3
  0
SEQEND
  0
POLYLINE
  8
MMIC_Label
  70
1
  66
1
  0
VERTEX
  8
MMIC_Label
  10
-437
  20
327.5
  0
VERTEX
  8
MMIC_Label
  10
-438.1
  20
329.4
  0
VERTEX
  8
MMIC_Label
  10
-439.3
  20
330.4
  0
VERTEX
  8
MMIC_Label
  10
-441.9
  20
331.3
  0
VERTEX
  8
MMIC_Label
  10
-450.1
  20
331.3
  0
VERTEX
  8
MMIC_Label
  10
-450.1
  20
314.8
  0
VERTEX
  8
MMIC_Label
  10
-447.1
  20
314.8
  0
VERTEX
  8
MMIC_Label
  10
-447.1
  20
328.3
  0
VERTEX
  8
MMIC_Label
  10
-442.4
  20
328.3
  0
VERTEX
  8
MMIC_Label
  10
-440.8
  20
327.7
  0
VERTEX
  8
MMIC_Label
  10
-440.5
  20
327.5
  0
VERTEX
  8
MMIC_Label
  10
-440
  20
326.7
  0
VERTEX
  8
MMIC_Label
  10
-440
  20
326.1
  0
VERTEX
  8
MMIC_Label
  10
-440.7
  20
324.8
  0
VERTEX
  8
MMIC_Label
  10
-440.9
  20
324.7
  0
VERTEX
  8
MMIC_Label
  10
-442.5
  20
324.1
  0
VERTEX
  8
MMIC_Label
  10
-445.6
  20
324.1
  0
VERTEX
  8
MMIC_Label
  10
-445.6
  20
321.1
  0
VERTEX
  8
MMIC_Label
  10
-444.3
  20
321.1
  0
VERTEX
  8
MMIC_Label
  10
-439.8
  20
314
  0
VERTEX
  8
MMIC_Label
  10
-437.3
  20
315.6
  0
VERTEX
  8
MMIC_Label
  10
-441
  20
321.5
  0
VERTEX
  8
MMIC_Label
  10
-439.2
  20
322
  0
VERTEX
  8
MMIC_Label
  10
-438.2
  20
323.1
  0
VERTEX
  8
MMIC_Label
  10
-437
  20
325.4
  0
SEQEND
  0
POLYLINE
  8
MMIC_Label
  70
1
  66
1
  0
VERTEX
  8
MMIC_Label
  10
345.51
  20
318.15
  0
VERTEX
  8
MMIC_Label
  10
349.47
  20
332.34
  0
VERTEX
  8
MMIC_Label
  10
353.1
  20
318.15
  0
SEQEND
  0
POLYLINE
  8
MMIC_Label
  70
1
  66
1
  0
VERTEX
  8
MMIC_Label
  10
-330.6
  20
300.3
  0
VERTEX
  8
MMIC_Label
  10
-315.6
  20
300.3
  0
VERTEX
  8
MMIC_Label
  10
-315.6
  20
285.3
  0
VERTEX
  8
MMIC_Label
  10
-330.6
  20
285.3
  0
SEQEND
  0
POLYLINE
  8
MMIC_Label
  70
1
  66
1
  0
VERTEX
  8
MMIC_Label
  10
402.86
  20
306.6
  0
VERTEX
  8
MMIC_Label
  10
402.86
  20
311.55
  0
VERTEX
  8
MMIC_Label
  10
410.12
  20
311.55
  0
VERTEX
  8
MMIC_Label
  10
410.12
  20
328.71
  0
VERTEX
  8
MMIC_Label
  10
401.21
  20
328.71
  0
VERTEX
  8
MMIC_Label
  10
401.21
  20
333
  0
VERTEX
  8
MMIC_Label
  10
402.86
  20
333
  0
VERTEX
  8
MMIC_Label
  10
404.84
  20
333.33
  0
VERTEX
  8
MMIC_Label
  10
406.82
  20
333.99
  0
VERTEX
  8
MMIC_Label
  10
408.47
  20
334.65
  0
VERTEX
  8
MMIC_Label
  10
409.79
  20
335.97
  0
VERTEX
  8
MMIC_Label
  10
410.78
  20
337.62
  0
VERTEX
  8
MMIC_Label
  10
411.11
  20
339.6
  0
VERTEX
  8
MMIC_Label
  10
416.72
  20
339.6
  0
VERTEX
  8
MMIC_Label
  10
416.72
  20
311.55
  0
VERTEX
  8
MMIC_Label
  10
423.98
  20
311.55
  0
VERTEX
  8
MMIC_Label
  10
423.98
  20
306.6
  0
SEQEND
  0
POLYLINE
  8
MMIC_Label
  70
1
  66
1
  0
VERTEX
  8
MMIC_Label
  10
234.19
  20
258.6
  0
VERTEX
  8
MMIC_Label
  10
244.09
  20
291.6
  0
VERTEX
  8
MMIC_Label
  10
251.68
  20
291.6
  0
VERTEX
  8
MMIC_Label
  10
261.58
  20
258.6
  0
VERTEX
  8
MMIC_Label
  10
254.65
  20
258.6
  0
VERTEX
  8
MMIC_Label
  10
253
  20
265.2
  0
VERTEX
  8
MMIC_Label
  10
243.1
  20
265.2
  0
VERTEX
  8
MMIC_Label
  10
241.45
  20
258.6
  0
SEQEND
  0
POLYLINE
  8
MMIC_Label
  70
1
  66
1
  0
VERTEX
  8
MMIC_Label
  10
365.39
  20
258.6
  0
VERTEX
  8
MMIC_Label
  10
365.39
  20
291.6
  0
VERTEX
  8
MMIC_Label
  10
371.99
  20
291.6
  0
VERTEX
  8
MMIC_Label
  10
386.84
  20
268.5
  0
VERTEX
  8
MMIC_Label
  10
386.84
  20
291.6
  0
VERTEX
  8
MMIC_Label
  10
392.78
  20
291.6
  0
VERTEX
  8
MMIC_Label
  10
392.78
  20
258.6
  0
VERTEX
  8
MMIC_Label
  10
386.84
  20
258.6
  0
VERTEX
  8
MMIC_Label
  10
371.33
  20
281.7
  0
VERTEX
  8
MMIC_Label
  10
371.33
  20
258.6
  0
SEQEND
  0
POLYLINE
  8
MMIC_Label
  70
1
  66
1
  0
VERTEX
  8
MMIC_Label
  10
-360.6
  20
300.3
  0
VERTEX
  8
MMIC_Label
  10
-345.6
  20
300.3
  0
VERTEX
  8
MMIC_Label
  10
-345.6
  20
285.3
  0
VERTEX
  8
MMIC_Label
  10
-360.6
  20
285.3
  0
SEQEND
  0
POLYLINE
  8
MMIC_Label
  70
1
  66
1
  0
VERTEX
  8
MMIC_Label
  10
-390.6
  20
300.3
  0
VERTEX
  8
MMIC_Label
  10
-375.6
  20
300.3
  0
VERTEX
  8
MMIC_Label
  10
-375.6
  20
285.3
  0
VERTEX
  8
MMIC_Label
  10
-390.6
  20
285.3
  0
SEQEND
  0
POLYLINE
  8
MMIC_Label
  70
1
  66
1
  0
VERTEX
  8
MMIC_Label
  10
299.79
  20
258.6
  0
VERTEX
  8
MMIC_Label
  10
309.69
  20
291.6
  0
VERTEX
  8
MMIC_Label
  10
317.28
  20
291.6
  0
VERTEX
  8
MMIC_Label
  10
327.18
  20
258.6
  0
VERTEX
  8
MMIC_Label
  10
320.25
  20
258.6
  0
VERTEX
  8
MMIC_Label
  10
318.6
  20
265.2
  0
VERTEX
  8
MMIC_Label
  10
308.7
  20
265.2
  0
VERTEX
  8
MMIC_Label
  10
307.05
  20
258.6
  0
SEQEND
  0
POLYLINE
  8
MMIC_Label
  70
1
  66
1
  0
VERTEX
  8
MMIC_Label
  10
-275.259
  20
255.123
  0
VERTEX
  8
MMIC_Label
  10
-275.855
  20
259.597
  0
VERTEX
  8
MMIC_Label
  10
-275.858
  20
259.606
  0
VERTEX
  8
MMIC_Label
  10
-277.766
  20
262.66
  0
VERTEX
  8
MMIC_Label
  10
-282.447
  20
262.66
  0
VERTEX
  8
MMIC_Label
  10
-282.447
  20
259.89
  0
VERTEX
  8
MMIC_Label
  10
-278.995
  20
259.89
  0
VERTEX
  8
MMIC_Label
  10
-278.552
  20
259.391
  0
VERTEX
  8
MMIC_Label
  10
-278.253
  20
258.914
  0
VERTEX
  8
MMIC_Label
  10
-277.774
  20
255.331
  0
VERTEX
  8
MMIC_Label
  10
-278.766
  20
253.015
  0
VERTEX
  8
MMIC_Label
  10
-278.939
  20
252.756
  0
VERTEX
  8
MMIC_Label
  10
-280.174
  20
252.101
  0
VERTEX
  8
MMIC_Label
  10
-282.023
  20
252.185
  0
VERTEX
  8
MMIC_Label
  10
-283.257
  20
252.432
  0
VERTEX
  8
MMIC_Label
  10
-284.063
  20
252.969
  0
VERTEX
  8
MMIC_Label
  10
-284.847
  20
254.616
  0
VERTEX
  8
MMIC_Label
  10
-284.847
  20
266.53
  0
VERTEX
  8
MMIC_Label
  10
-284.792
  20
266.967
  0
VERTEX
  8
MMIC_Label
  10
-283.878
  20
268.034
  0
VERTEX
  8
MMIC_Label
  10
-283.529
  20
268.267
  0
VERTEX
  8
MMIC_Label
  10
-282.254
  20
268.607
  0
VERTEX
  8
MMIC_Label
  10
-281.667
  20
268.68
  0
VERTEX
  8
MMIC_Label
  10
-279.759
  20
268.362
  0
VERTEX
  8
MMIC_Label
  10
-279.252
  20
267.791
  0
VERTEX
  8
MMIC_Label
  10
-278.879
  20
267.194
  0
VERTEX
  8
MMIC_Label
  10
-278.617
  20
266.147
  0
VERTEX
  8
MMIC_Label
  10
-276.458
  20
266.688
  0
VERTEX
  8
MMIC_Label
  10
-276.911
  20
268.502
  0
VERTEX
  8
MMIC_Label
  10
-276.94
  20
268.548
  0
VERTEX
  8
MMIC_Label
  10
-278.893
  20
270.744
  0
VERTEX
  8
MMIC_Label
  10
-281.627
  20
271.2
  0
VERTEX
  8
MMIC_Label
  10
-282.64
  20
271.073
  0
VERTEX
  8
MMIC_Label
  10
-284.643
  20
270.539
  0
VERTEX
  8
MMIC_Label
  10
-287.404
  20
267.32
  0
VERTEX
  8
MMIC_Label
  10
-287.487
  20
266.65
  0
VERTEX
  8
MMIC_Label
  10
-287.487
  20
254.164
  0
VERTEX
  8
MMIC_Label
  10
-285.83
  20
250.683
  0
VERTEX
  8
MMIC_Label
  10
-284.457
  20
249.768
  0
VERTEX
  8
MMIC_Label
  10
-282.691
  20
249.415
  0
VERTEX
  8
MMIC_Label
  10
-279.341
  20
249.263
  0
VERTEX
  8
MMIC_Label
  10
-277.828
  20
250.062
  0
VERTEX
  8
MMIC_Label
  10
-276.708
  20
251.745
  0
SEQEND
  0
POLYLINE
  8
MMIC_Label
  70
1
  66
1
  0
VERTEX
  8
MMIC_Label
  10
-436.4
  20
288.5
  0
VERTEX
  8
MMIC_Label
  10
-439.1
  20
289.9
  0
VERTEX
  8
MMIC_Label
  10
-439.8
  20
288.6
  0
VERTEX
  8
MMIC_Label
  10
-440.8
  20
287.6
  0
VERTEX
  8
MMIC_Label
  10
-441.7
  20
287.1
  0
VERTEX
  8
MMIC_Label
  10
-444
  20
287.1
  0
VERTEX
  8
MMIC_Label
  10
-444.8
  20
287.5
  0
VERTEX
  8
MMIC_Label
  10
-445.8
  20
288.7
  0
VERTEX
  8
MMIC_Label
  10
-446.4
  20
289.8
  0
VERTEX
  8
MMIC_Label
  10
-447.1
  20
291.7
  0
VERTEX
  8
MMIC_Label
  10
-447.1
  20
293.1
  0
VERTEX
  8
MMIC_Label
  10
-446.4
  20
294.9
  0
VERTEX
  8
MMIC_Label
  10
-445.8
  20
296.1
  0
VERTEX
  8
MMIC_Label
  10
-444.8
  20
297.1
  0
VERTEX
  8
MMIC_Label
  10
-443.9
  20
297.6
  0
VERTEX
  8
MMIC_Label
  10
-441.6
  20
297.6
  0
VERTEX
  8
MMIC_Label
  10
-440.9
  20
297.1
  0
VERTEX
  8
MMIC_Label
  10
-439.7
  20
296.1
  0
VERTEX
  8
MMIC_Label
  10
-439.1
  20
294.8
  0
VERTEX
  8
MMIC_Label
  10
-436.4
  20
296.2
  0
VERTEX
  8
MMIC_Label
  10
-437.3
  20
297.9
  0
VERTEX
  8
MMIC_Label
  10
-439.1
  20
299.6
  0
VERTEX
  8
MMIC_Label
  10
-440.8
  20
300.6
  0
VERTEX
  8
MMIC_Label
  10
-444.6
  20
300.6
  0
VERTEX
  8
MMIC_Label
  10
-446.6
  20
299.6
  0
VERTEX
  8
MMIC_Label
  10
-448.3
  20
297.9
  0
VERTEX
  8
MMIC_Label
  10
-449.2
  20
296.1
  0
VERTEX
  8
MMIC_Label
  10
-450.1
  20
293.7
  0
VERTEX
  8
MMIC_Label
  10
-450.1
  20
291.2
  0
VERTEX
  8
MMIC_Label
  10
-449.2
  20
288.6
  0
VERTEX
  8
MMIC_Label
  10
-448.3
  20
287
  0
VERTEX
  8
MMIC_Label
  10
-446.7
  20
285.2
  0
VERTEX
  8
MMIC_Label
  10
-444.8
  20
284.1
  0
VERTEX
  8
MMIC_Label
  10
-441
  20
284.1
  0
VERTEX
  8
MMIC_Label
  10
-439
  20
285.1
  0
VERTEX
  8
MMIC_Label
  10
-437.3
  20
286.8
  0
SEQEND
  0
POLYLINE
  8
MMIC_Label
  70
1
  66
1
  0
VERTEX
  8
MMIC_Label
  10
-130.836
  20
302.627
  0
VERTEX
  8
MMIC_Label
  10
-130.833
  20
302.626
  0
VERTEX
  8
MMIC_Label
  10
-130.829
  20
302.625
  0
VERTEX
  8
MMIC_Label
  10
-130.826
  20
302.623
  0
VERTEX
  8
MMIC_Label
  10
-130.822
  20
302.622
  0
VERTEX
  8
MMIC_Label
  10
-130.818
  20
302.619
  0
VERTEX
  8
MMIC_Label
  10
-130.816
  20
302.616
  0
VERTEX
  8
MMIC_Label
  10
-130.813
  20
302.614
  0
VERTEX
  8
MMIC_Label
  10
-130.81
  20
302.61
  0
VERTEX
  8
MMIC_Label
  10
-130.809
  20
302.606
  0
VERTEX
  8
MMIC_Label
  10
-130.807
  20
302.603
  0
VERTEX
  8
MMIC_Label
  10
-130.806
  20
302.599
  0
VERTEX
  8
MMIC_Label
  10
-130.805
  20
302.596
  0
VERTEX
  8
MMIC_Label
  10
-130.804
  20
302.592
  0
VERTEX
  8
MMIC_Label
  10
-130.804
  20
302.584
  0
VERTEX
  8
MMIC_Label
  10
-130.803
  20
302.58
  0
VERTEX
  8
MMIC_Label
  10
-130.802
  20
302.577
  0
VERTEX
  8
MMIC_Label
  10
-130.801
  20
302.573
  0
VERTEX
  8
MMIC_Label
  10
-130.799
  20
302.57
  0
VERTEX
  8
MMIC_Label
  10
-130.798
  20
302.566
  0
VERTEX
  8
MMIC_Label
  10
-130.795
  20
302.562
  0
VERTEX
  8
MMIC_Label
  10
-130.792
  20
302.56
  0
VERTEX
  8
MMIC_Label
  10
-130.79
  20
302.557
  0
VERTEX
  8
MMIC_Label
  10
-130.786
  20
302.554
  0
VERTEX
  8
MMIC_Label
  10
-130.782
  20
302.553
  0
VERTEX
  8
MMIC_Label
  10
-130.779
  20
302.551
  0
VERTEX
  8
MMIC_Label
  10
-130.775
  20
302.55
  0
VERTEX
  8
MMIC_Label
  10
-130.772
  20
302.549
  0
VERTEX
  8
MMIC_Label
  10
-130.768
  20
302.548
  0
VERTEX
  8
MMIC_Label
  10
-130.76
  20
302.548
  0
VERTEX
  8
MMIC_Label
  10
-130.756
  20
302.547
  0
VERTEX
  8
MMIC_Label
  10
-130.753
  20
302.546
  0
VERTEX
  8
MMIC_Label
  10
-130.749
  20
302.545
  0
VERTEX
  8
MMIC_Label
  10
-130.746
  20
302.543
  0
VERTEX
  8
MMIC_Label
  10
-130.742
  20
302.542
  0
VERTEX
  8
MMIC_Label
  10
-130.738
  20
302.539
  0
VERTEX
  8
MMIC_Label
  10
-130.736
  20
302.536
  0
VERTEX
  8
MMIC_Label
  10
-130.733
  20
302.534
  0
VERTEX
  8
MMIC_Label
  10
-130.73
  20
302.53
  0
VERTEX
  8
MMIC_Label
  10
-130.729
  20
302.526
  0
VERTEX
  8
MMIC_Label
  10
-130.727
  20
302.523
  0
VERTEX
  8
MMIC_Label
  10
-130.726
  20
302.519
  0
VERTEX
  8
MMIC_Label
  10
-130.725
  20
302.516
  0
VERTEX
  8
MMIC_Label
  10
-130.724
  20
302.512
  0
VERTEX
  8
MMIC_Label
  10
-130.724
  20
302.407
  0
VERTEX
  8
MMIC_Label
  10
-131.765
  20
296.102
  0
VERTEX
  8
MMIC_Label
  10
-131.803
  20
295.926
  0
VERTEX
  8
MMIC_Label
  10
-131.859
  20
295.754
  0
VERTEX
  8
MMIC_Label
  10
-131.932
  20
295.589
  0
VERTEX
  8
MMIC_Label
  10
-132.021
  20
295.431
  0
VERTEX
  8
MMIC_Label
  10
-132.126
  20
295.284
  0
VERTEX
  8
MMIC_Label
  10
-132.245
  20
295.147
  0
VERTEX
  8
MMIC_Label
  10
-132.376
  20
295.023
  0
VERTEX
  8
MMIC_Label
  10
-132.52
  20
294.914
  0
VERTEX
  8
MMIC_Label
  10
-132.674
  20
294.818
  0
VERTEX
  8
MMIC_Label
  10
-132.837
  20
294.739
  0
VERTEX
  8
MMIC_Label
  10
-133.006
  20
294.678
  0
VERTEX
  8
MMIC_Label
  10
-133.182
  20
294.632
  0
VERTEX
  8
MMIC_Label
  10
-133.36
  20
294.605
  0
VERTEX
  8
MMIC_Label
  10
-133.541
  20
294.596
  0
VERTEX
  8
MMIC_Label
  10
-152.942
  20
294.596
  0
VERTEX
  8
MMIC_Label
  10
-153.982
  20
294.676
  0
VERTEX
  8
MMIC_Label
  10
-154.706
  20
294.676
  0
VERTEX
  8
MMIC_Label
  10
-156.29
  20
295.006
  0
VERTEX
  8
MMIC_Label
  10
-156.632
  20
295.077
  0
VERTEX
  8
MMIC_Label
  10
-157.676
  20
295.318
  0
VERTEX
  8
MMIC_Label
  10
-159.122
  20
295.801
  0
VERTEX
  8
MMIC_Label
  10
-161.21
  20
296.846
  0
VERTEX
  8
MMIC_Label
  10
-162.98
  20
298.293
  0
VERTEX
  8
MMIC_Label
  10
-163.624
  20
299.098
  0
VERTEX
  8
MMIC_Label
  10
-164.426
  20
300.142
  0
VERTEX
  8
MMIC_Label
  10
-165.232
  20
301.671
  0
VERTEX
  8
MMIC_Label
  10
-165.555
  20
302.962
  0
VERTEX
  8
MMIC_Label
  10
-165.636
  20
303.766
  0
VERTEX
  8
MMIC_Label
  10
-165.796
  20
304.807
  0
VERTEX
  8
MMIC_Label
  10
-165.796
  20
306.016
  0
VERTEX
  8
MMIC_Label
  10
-165.635
  20
307.459
  0
VERTEX
  8
MMIC_Label
  10
-165.395
  20
308.745
  0
VERTEX
  8
MMIC_Label
  10
-165.072
  20
309.79
  0
VERTEX
  8
MMIC_Label
  10
-164.59
  20
310.915
  0
VERTEX
  8
MMIC_Label
  10
-164.19
  20
311.719
  0
VERTEX
  8
MMIC_Label
  10
-163.466
  20
312.924
  0
VERTEX
  8
MMIC_Label
  10
-162.343
  20
314.37
  0
VERTEX
  8
MMIC_Label
  10
-161.138
  20
315.575
  0
VERTEX
  8
MMIC_Label
  10
-159.532
  20
316.778
  0
VERTEX
  8
MMIC_Label
  10
-158.009
  20
317.741
  0
VERTEX
  8
MMIC_Label
  10
-156.483
  20
318.623
  0
VERTEX
  8
MMIC_Label
  10
-156.29
  20
318.693
  0
VERTEX
  8
MMIC_Label
  10
-154.477
  20
319.346
  0
VERTEX
  8
MMIC_Label
  10
-152.553
  20
319.827
  0
VERTEX
  8
MMIC_Label
  10
-150.867
  20
320.228
  0
VERTEX
  8
MMIC_Label
  10
-149.102
  20
320.308
  0
VERTEX
  8
MMIC_Label
  10
-145.981
  20
320.388
  0
VERTEX
  8
MMIC_Label
  10
-121.339
  20
320.466
  0
VERTEX
  8
MMIC_Label
  10
-121.157
  20
320.475
  0
VERTEX
  8
MMIC_Label
  10
-120.976
  20
320.504
  0
VERTEX
  8
MMIC_Label
  10
-120.799
  20
320.55
  0
VERTEX
  8
MMIC_Label
  10
-120.628
  20
320.614
  0
VERTEX
  8
MMIC_Label
  10
-120.464
  20
320.696
  0
VERTEX
  8
MMIC_Label
  10
-120.309
  20
320.794
  0
VERTEX
  8
MMIC_Label
  10
-120.165
  20
320.906
  0
VERTEX
  8
MMIC_Label
  10
-120.033
  20
321.033
  0
VERTEX
  8
MMIC_Label
  10
-111.039
  20
330.603
  0
VERTEX
  8
MMIC_Label
  10
-110.926
  20
330.736
  0
VERTEX
  8
MMIC_Label
  10
-110.826
  20
330.879
  0
VERTEX
  8
MMIC_Label
  10
-110.742
  20
331.031
  0
VERTEX
  8
MMIC_Label
  10
-110.671
  20
331.19
  0
VERTEX
  8
MMIC_Label
  10
-110.616
  20
331.356
  0
VERTEX
  8
MMIC_Label
  10
-110.578
  20
331.526
  0
VERTEX
  8
MMIC_Label
  10
-110.557
  20
331.699
  0
VERTEX
  8
MMIC_Label
  10
-110.551
  20
331.874
  0
VERTEX
  8
MMIC_Label
  10
-110.564
  20
332.047
  0
VERTEX
  8
MMIC_Label
  10
-110.593
  20
332.219
  0
VERTEX
  8
MMIC_Label
  10
-110.638
  20
332.387
  0
VERTEX
  8
MMIC_Label
  10
-110.699
  20
332.55
  0
VERTEX
  8
MMIC_Label
  10
-110.776
  20
332.707
  0
VERTEX
  8
MMIC_Label
  10
-110.868
  20
332.855
  0
VERTEX
  8
MMIC_Label
  10
-110.973
  20
332.994
  0
VERTEX
  8
MMIC_Label
  10
-111.092
  20
333.122
  0
VERTEX
  8
MMIC_Label
  10
-111.222
  20
333.238
  0
VERTEX
  8
MMIC_Label
  10
-111.363
  20
333.34
  0
VERTEX
  8
MMIC_Label
  10
-111.513
  20
333.429
  0
VERTEX
  8
MMIC_Label
  10
-111.671
  20
333.502
  0
VERTEX
  8
MMIC_Label
  10
-111.835
  20
333.561
  0
VERTEX
  8
MMIC_Label
  10
-112.005
  20
333.602
  0
VERTEX
  8
MMIC_Label
  10
-112.177
  20
333.627
  0
VERTEX
  8
MMIC_Label
  10
-112.351
  20
333.636
  0
VERTEX
  8
MMIC_Label
  10
-148.618
  20
333.636
  0
VERTEX
  8
MMIC_Label
  10
-149.654
  20
333.556
  0
VERTEX
  8
MMIC_Label
  10
-151.174
  20
333.396
  0
VERTEX
  8
MMIC_Label
  10
-152.771
  20
333.157
  0
VERTEX
  8
MMIC_Label
  10
-153.81
  20
332.997
  0
VERTEX
  8
MMIC_Label
  10
-156.29
  20
332.46
  0
VERTEX
  8
MMIC_Label
  10
-156.765
  20
332.358
  0
VERTEX
  8
MMIC_Label
  10
-159.642
  20
331.48
  0
VERTEX
  8
MMIC_Label
  10
-162.358
  20
330.441
  0
VERTEX
  8
MMIC_Label
  10
-164.996
  20
329.322
  0
VERTEX
  8
MMIC_Label
  10
-167.471
  20
327.963
  0
VERTEX
  8
MMIC_Label
  10
-169.707
  20
326.526
  0
VERTEX
  8
MMIC_Label
  10
-171.785
  20
324.929
  0
VERTEX
  8
MMIC_Label
  10
-173.78
  20
323.093
  0
VERTEX
  8
MMIC_Label
  10
-175.297
  20
321.337
  0
VERTEX
  8
MMIC_Label
  10
-176.735
  20
319.578
  0
VERTEX
  8
MMIC_Label
  10
-178.014
  20
317.663
  0
VERTEX
  8
MMIC_Label
  10
-179.13
  20
315.746
  0
VERTEX
  8
MMIC_Label
  10
-180.009
  20
313.75
  0
VERTEX
  8
MMIC_Label
  10
-180.726
  20
311.915
  0
VERTEX
  8
MMIC_Label
  10
-181.205
  20
309.921
  0
VERTEX
  8
MMIC_Label
  10
-181.604
  20
307.687
  0
VERTEX
  8
MMIC_Label
  10
-181.604
  20
306.331
  0
VERTEX
  8
MMIC_Label
  10
-181.684
  20
304.651
  0
VERTEX
  8
MMIC_Label
  10
-181.684
  20
302.974
  0
VERTEX
  8
MMIC_Label
  10
-181.604
  20
301.778
  0
VERTEX
  8
MMIC_Label
  10
-181.205
  20
299.463
  0
VERTEX
  8
MMIC_Label
  10
-180.886
  20
298.188
  0
VERTEX
  8
MMIC_Label
  10
-180.248
  20
296.274
  0
VERTEX
  8
MMIC_Label
  10
-179.61
  20
294.918
  0
VERTEX
  8
MMIC_Label
  10
-178.651
  20
293.161
  0
VERTEX
  8
MMIC_Label
  10
-177.775
  20
291.885
  0
VERTEX
  8
MMIC_Label
  10
-176.417
  20
290.127
  0
VERTEX
  8
MMIC_Label
  10
-175.461
  20
289.092
  0
VERTEX
  8
MMIC_Label
  10
-173.785
  20
287.576
  0
VERTEX
  8
MMIC_Label
  10
-172.028
  20
286.298
  0
VERTEX
  8
MMIC_Label
  10
-169.872
  20
285.021
  0
VERTEX
  8
MMIC_Label
  10
-168.117
  20
284.063
  0
VERTEX
  8
MMIC_Label
  10
-165.482
  20
283.104
  0
VERTEX
  8
MMIC_Label
  10
-163.645
  20
282.546
  0
VERTEX
  8
MMIC_Label
  10
-159.734
  20
281.668
  0
VERTEX
  8
MMIC_Label
  10
-158.458
  20
281.668
  0
VERTEX
  8
MMIC_Label
  10
-157.258
  20
281.588
  0
VERTEX
  8
MMIC_Label
  10
-157.179
  20
281.588
  0
VERTEX
  8
MMIC_Label
  10
-156.29
  20
281.565
  0
VERTEX
  8
MMIC_Label
  10
-154.139
  20
281.508
  0
VERTEX
  8
MMIC_Label
  10
-134.56
  20
281.464
  0
VERTEX
  8
MMIC_Label
  10
-120.024
  20
281.431
  0
VERTEX
  8
MMIC_Label
  10
-119.844
  20
281.44
  0
VERTEX
  8
MMIC_Label
  10
-119.666
  20
281.466
  0
VERTEX
  8
MMIC_Label
  10
-119.491
  20
281.51
  0
VERTEX
  8
MMIC_Label
  10
-119.322
  20
281.572
  0
VERTEX
  8
MMIC_Label
  10
-119.16
  20
281.65
  0
VERTEX
  8
MMIC_Label
  10
-119.006
  20
281.744
  0
VERTEX
  8
MMIC_Label
  10
-118.862
  20
281.853
  0
VERTEX
  8
MMIC_Label
  10
-118.73
  20
281.975
  0
VERTEX
  8
MMIC_Label
  10
-118.612
  20
282.11
  0
VERTEX
  8
MMIC_Label
  10
-118.506
  20
282.256
  0
VERTEX
  8
MMIC_Label
  10
-118.417
  20
282.412
  0
VERTEX
  8
MMIC_Label
  10
-118.343
  20
282.577
  0
VERTEX
  8
MMIC_Label
  10
-118.286
  20
282.747
  0
VERTEX
  8
MMIC_Label
  10
-118.246
  20
282.923
  0
VERTEX
  8
MMIC_Label
  10
-113.214
  20
311.847
  0
VERTEX
  8
MMIC_Label
  10
-113.192
  20
312.02
  0
VERTEX
  8
MMIC_Label
  10
-113.187
  20
312.194
  0
VERTEX
  8
MMIC_Label
  10
-113.199
  20
312.368
  0
VERTEX
  8
MMIC_Label
  10
-113.228
  20
312.54
  0
VERTEX
  8
MMIC_Label
  10
-113.274
  20
312.708
  0
VERTEX
  8
MMIC_Label
  10
-113.335
  20
312.871
  0
VERTEX
  8
MMIC_Label
  10
-113.412
  20
313.028
  0
VERTEX
  8
MMIC_Label
  10
-113.503
  20
313.176
  0
VERTEX
  8
MMIC_Label
  10
-113.609
  20
313.314
  0
VERTEX
  8
MMIC_Label
  10
-113.727
  20
313.442
  0
VERTEX
  8
MMIC_Label
  10
-113.858
  20
313.558
  0
VERTEX
  8
MMIC_Label
  10
-113.998
  20
313.661
  0
VERTEX
  8
MMIC_Label
  10
-114.149
  20
313.749
  0
VERTEX
  8
MMIC_Label
  10
-114.306
  20
313.822
  0
VERTEX
  8
MMIC_Label
  10
-114.471
  20
313.881
  0
VERTEX
  8
MMIC_Label
  10
-114.64
  20
313.922
  0
VERTEX
  8
MMIC_Label
  10
-114.813
  20
313.947
  0
VERTEX
  8
MMIC_Label
  10
-114.986
  20
313.956
  0
VERTEX
  8
MMIC_Label
  10
-146.118
  20
313.956
  0
VERTEX
  8
MMIC_Label
  10
-154.176
  20
305.634
  0
VERTEX
  8
MMIC_Label
  10
-154.29
  20
305.495
  0
VERTEX
  8
MMIC_Label
  10
-154.39
  20
305.345
  0
VERTEX
  8
MMIC_Label
  10
-154.474
  20
305.185
  0
VERTEX
  8
MMIC_Label
  10
-154.542
  20
305.018
  0
VERTEX
  8
MMIC_Label
  10
-154.592
  20
304.845
  0
VERTEX
  8
MMIC_Label
  10
-154.625
  20
304.667
  0
VERTEX
  8
MMIC_Label
  10
-154.64
  20
304.487
  0
VERTEX
  8
MMIC_Label
  10
-154.637
  20
304.307
  0
VERTEX
  8
MMIC_Label
  10
-154.615
  20
304.128
  0
VERTEX
  8
MMIC_Label
  10
-154.577
  20
303.952
  0
VERTEX
  8
MMIC_Label
  10
-154.52
  20
303.781
  0
VERTEX
  8
MMIC_Label
  10
-154.447
  20
303.616
  0
VERTEX
  8
MMIC_Label
  10
-154.358
  20
303.459
  0
VERTEX
  8
MMIC_Label
  10
-154.253
  20
303.312
  0
VERTEX
  8
MMIC_Label
  10
-154.134
  20
303.177
  0
VERTEX
  8
MMIC_Label
  10
-154.002
  20
303.054
  0
VERTEX
  8
MMIC_Label
  10
-153.859
  20
302.944
  0
VERTEX
  8
MMIC_Label
  10
-153.706
  20
302.85
  0
VERTEX
  8
MMIC_Label
  10
-153.543
  20
302.77
  0
VERTEX
  8
MMIC_Label
  10
-153.374
  20
302.709
  0
VERTEX
  8
MMIC_Label
  10
-153.199
  20
302.664
  0
VERTEX
  8
MMIC_Label
  10
-153.021
  20
302.637
  0
VERTEX
  8
MMIC_Label
  10
-152.841
  20
302.628
  0
VERTEX
  8
MMIC_Label
  10
-130.84
  20
302.628
  0
SEQEND
  0
POLYLINE
  8
MMIC_Label
  70
1
  66
1
  0
VERTEX
  8
MMIC_Label
  10
244.09
  20
270.15
  0
VERTEX
  8
MMIC_Label
  10
248.05
  20
284.34
  0
VERTEX
  8
MMIC_Label
  10
251.68
  20
270.15
  0
SEQEND
  0
POLYLINE
  8
MMIC_Label
  70
1
  66
1
  0
VERTEX
  8
MMIC_Label
  10
-325.428
  20
249.69
  0
VERTEX
  8
MMIC_Label
  10
-329.607
  20
257.326
  0
VERTEX
  8
MMIC_Label
  10
-325.724
  20
264.119
  0
VERTEX
  8
MMIC_Label
  10
-328.549
  20
264.119
  0
VERTEX
  8
MMIC_Label
  10
-330.442
  20
260.709
  0
VERTEX
  8
MMIC_Label
  10
-330.834
  20
260.016
  0
VERTEX
  8
MMIC_Label
  10
-331.299
  20
259.119
  0
VERTEX
  8
MMIC_Label
  10
-331.596
  20
259.772
  0
VERTEX
  8
MMIC_Label
  10
-332.082
  20
260.736
  0
VERTEX
  8
MMIC_Label
  10
-333.807
  20
264.119
  0
VERTEX
  8
MMIC_Label
  10
-336.737
  20
264.119
  0
VERTEX
  8
MMIC_Label
  10
-332.939
  20
257.19
  0
VERTEX
  8
MMIC_Label
  10
-337.044
  20
249.69
  0
VERTEX
  8
MMIC_Label
  10
-334.188
  20
249.69
  0
VERTEX
  8
MMIC_Label
  10
-331.236
  20
255.383
  0
VERTEX
  8
MMIC_Label
  10
-330.622
  20
254.174
  0
VERTEX
  8
MMIC_Label
  10
-328.316
  20
249.69
  0
SEQEND
  0
POLYLINE
  8
MMIC_Label
  70
1
  66
1
  0
VERTEX
  8
MMIC_Label
  10
-385.6
  20
280.2
  0
VERTEX
  8
MMIC_Label
  10
-410.6
  20
280.2
  0
VERTEX
  8
MMIC_Label
  10
-410.6
  20
275.2
  0
VERTEX
  8
MMIC_Label
  10
-385.6
  20
275.2
  0
SEQEND
  0
POLYLINE
  8
MMIC_Label
  70
1
  66
1
  0
VERTEX
  8
MMIC_Label
  10
-275.6
  20
280.2
  0
VERTEX
  8
MMIC_Label
  10
-290.6
  20
280.2
  0
VERTEX
  8
MMIC_Label
  10
-290.6
  20
275.2
  0
VERTEX
  8
MMIC_Label
  10
-275.6
  20
275.2
  0
SEQEND
  0
POLYLINE
  8
MMIC_Label
  70
1
  66
1
  0
VERTEX
  8
MMIC_Label
  10
455.41
  20
332.34
  0
VERTEX
  8
MMIC_Label
  10
454.42
  20
334.32
  0
VERTEX
  8
MMIC_Label
  10
453.1
  20
336.3
  0
VERTEX
  8
MMIC_Label
  10
451.45
  20
337.62
  0
VERTEX
  8
MMIC_Label
  10
447.49
  20
339.6
  0
VERTEX
  8
MMIC_Label
  10
440.56
  20
339.6
  0
VERTEX
  8
MMIC_Label
  10
438.25
  20
339.27
  0
VERTEX
  8
MMIC_Label
  10
435.94
  20
337.95
  0
VERTEX
  8
MMIC_Label
  10
433.96
  20
336.63
  0
VERTEX
  8
MMIC_Label
  10
432.64
  20
334.98
  0
VERTEX
  8
MMIC_Label
  10
431.32
  20
332.67
  0
VERTEX
  8
MMIC_Label
  10
430.33
  20
330.69
  0
VERTEX
  8
MMIC_Label
  10
429.34
  20
328.05
  0
VERTEX
  8
MMIC_Label
  10
429.01
  20
325.74
  0
VERTEX
  8
MMIC_Label
  10
429.01
  20
320.46
  0
VERTEX
  8
MMIC_Label
  10
429.34
  20
318.15
  0
VERTEX
  8
MMIC_Label
  10
430.33
  20
315.51
  0
VERTEX
  8
MMIC_Label
  10
431.32
  20
313.53
  0
VERTEX
  8
MMIC_Label
  10
432.64
  20
311.22
  0
VERTEX
  8
MMIC_Label
  10
433.96
  20
309.57
  0
VERTEX
  8
MMIC_Label
  10
435.94
  20
308.25
  0
VERTEX
  8
MMIC_Label
  10
438.25
  20
306.93
  0
VERTEX
  8
MMIC_Label
  10
440.56
  20
306.6
  0
VERTEX
  8
MMIC_Label
  10
447.49
  20
306.6
  0
VERTEX
  8
MMIC_Label
  10
449.47
  20
307.26
  0
VERTEX
  8
MMIC_Label
  10
451.45
  20
308.58
  0
VERTEX
  8
MMIC_Label
  10
453.1
  20
309.9
  0
VERTEX
  8
MMIC_Label
  10
454.42
  20
311.22
  0
VERTEX
  8
MMIC_Label
  10
455.74
  20
313.2
  0
VERTEX
  8
MMIC_Label
  10
456.4
  20
315.18
  0
VERTEX
  8
MMIC_Label
  10
456.4
  20
317.49
  0
VERTEX
  8
MMIC_Label
  10
456.07
  20
319.8
  0
VERTEX
  8
MMIC_Label
  10
455.41
  20
322.11
  0
VERTEX
  8
MMIC_Label
  10
452.77
  20
325.41
  0
VERTEX
  8
MMIC_Label
  10
448.81
  20
327.39
  0
VERTEX
  8
MMIC_Label
  10
446.5
  20
328.05
  0
VERTEX
  8
MMIC_Label
  10
444.52
  20
328.05
  0
VERTEX
  8
MMIC_Label
  10
441.88
  20
327.72
  0
VERTEX
  8
MMIC_Label
  10
439.57
  20
327.06
  0
VERTEX
  8
MMIC_Label
  10
437.59
  20
325.74
  0
VERTEX
  8
MMIC_Label
  10
435.61
  20
324.09
  0
VERTEX
  8
MMIC_Label
  10
435.61
  20
326.07
  0
VERTEX
  8
MMIC_Label
  10
435.94
  20
327.72
  0
VERTEX
  8
MMIC_Label
  10
436.6
  20
329.7
  0
VERTEX
  8
MMIC_Label
  10
438.58
  20
333
  0
VERTEX
  8
MMIC_Label
  10
439.9
  20
333.99
  0
VERTEX
  8
MMIC_Label
  10
441.88
  20
334.98
  0
VERTEX
  8
MMIC_Label
  10
443.86
  20
335.31
  0
VERTEX
  8
MMIC_Label
  10
445.51
  20
334.98
  0
VERTEX
  8
MMIC_Label
  10
448.15
  20
333.66
  0
VERTEX
  8
MMIC_Label
  10
449.47
  20
332.34
  0
SEQEND
  0
POLYLINE
  8
MMIC_Label
  70
1
  66
1
  0
VERTEX
  8
MMIC_Label
  10
398.19
  20
258.6
  0
VERTEX
  8
MMIC_Label
  10
408.09
  20
275.1
  0
VERTEX
  8
MMIC_Label
  10
398.19
  20
291.6
  0
VERTEX
  8
MMIC_Label
  10
405.45
  20
291.6
  0
VERTEX
  8
MMIC_Label
  10
412.05
  20
280.71
  0
VERTEX
  8
MMIC_Label
  10
418.65
  20
291.6
  0
VERTEX
  8
MMIC_Label
  10
425.58
  20
291.6
  0
VERTEX
  8
MMIC_Label
  10
415.68
  20
275.1
  0
VERTEX
  8
MMIC_Label
  10
425.58
  20
258.6
  0
VERTEX
  8
MMIC_Label
  10
418.65
  20
258.6
  0
VERTEX
  8
MMIC_Label
  10
412.05
  20
269.49
  0
VERTEX
  8
MMIC_Label
  10
405.45
  20
258.6
  0
SEQEND
  0
POLYLINE
  8
MMIC_Label
  70
1
  66
1
  0
VERTEX
  8
MMIC_Label
  10
430.99
  20
258.6
  0
VERTEX
  8
MMIC_Label
  10
440.89
  20
275.1
  0
VERTEX
  8
MMIC_Label
  10
430.99
  20
291.6
  0
VERTEX
  8
MMIC_Label
  10
438.25
  20
291.6
  0
VERTEX
  8
MMIC_Label
  10
444.85
  20
280.71
  0
VERTEX
  8
MMIC_Label
  10
451.45
  20
291.6
  0
VERTEX
  8
MMIC_Label
  10
458.38
  20
291.6
  0
VERTEX
  8
MMIC_Label
  10
448.48
  20
275.1
  0
VERTEX
  8
MMIC_Label
  10
458.38
  20
258.6
  0
VERTEX
  8
MMIC_Label
  10
451.45
  20
258.6
  0
VERTEX
  8
MMIC_Label
  10
444.85
  20
269.49
  0
VERTEX
  8
MMIC_Label
  10
438.25
  20
258.6
  0
SEQEND
  0
POLYLINE
  8
MMIC_Label
  70
1
  66
1
  0
VERTEX
  8
MMIC_Label
  10
-383.84
  20
249.69
  0
VERTEX
  8
MMIC_Label
  10
-388.019
  20
257.326
  0
VERTEX
  8
MMIC_Label
  10
-384.136
  20
264.119
  0
VERTEX
  8
MMIC_Label
  10
-386.961
  20
264.119
  0
VERTEX
  8
MMIC_Label
  10
-388.854
  20
260.709
  0
VERTEX
  8
MMIC_Label
  10
-389.246
  20
260.016
  0
VERTEX
  8
MMIC_Label
  10
-389.711
  20
259.119
  0
VERTEX
  8
MMIC_Label
  10
-390.008
  20
259.772
  0
VERTEX
  8
MMIC_Label
  10
-390.494
  20
260.736
  0
VERTEX
  8
MMIC_Label
  10
-392.219
  20
264.119
  0
VERTEX
  8
MMIC_Label
  10
-395.149
  20
264.119
  0
VERTEX
  8
MMIC_Label
  10
-391.351
  20
257.19
  0
VERTEX
  8
MMIC_Label
  10
-395.456
  20
249.69
  0
VERTEX
  8
MMIC_Label
  10
-392.6
  20
249.69
  0
VERTEX
  8
MMIC_Label
  10
-389.648
  20
255.383
  0
VERTEX
  8
MMIC_Label
  10
-389.034
  20
254.174
  0
VERTEX
  8
MMIC_Label
  10
-386.728
  20
249.69
  0
SEQEND
  0
POLYLINE
  8
MMIC_Label
  70
1
  66
1
  0
VERTEX
  8
MMIC_Label
  10
-275.259
  20
255.123
  0
VERTEX
  8
MMIC_Label
  10
-275.855
  20
259.597
  0
VERTEX
  8
MMIC_Label
  10
-275.858
  20
259.606
  0
VERTEX
  8
MMIC_Label
  10
-277.766
  20
262.66
  0
VERTEX
  8
MMIC_Label
  10
-282.447
  20
262.66
  0
VERTEX
  8
MMIC_Label
  10
-282.447
  20
259.89
  0
VERTEX
  8
MMIC_Label
  10
-278.995
  20
259.89
  0
VERTEX
  8
MMIC_Label
  10
-278.552
  20
259.391
  0
VERTEX
  8
MMIC_Label
  10
-278.253
  20
258.914
  0
VERTEX
  8
MMIC_Label
  10
-277.774
  20
255.331
  0
VERTEX
  8
MMIC_Label
  10
-278.766
  20
253.015
  0
VERTEX
  8
MMIC_Label
  10
-278.939
  20
252.756
  0
VERTEX
  8
MMIC_Label
  10
-280.174
  20
252.101
  0
VERTEX
  8
MMIC_Label
  10
-282.023
  20
252.185
  0
VERTEX
  8
MMIC_Label
  10
-283.257
  20
252.432
  0
VERTEX
  8
MMIC_Label
  10
-284.063
  20
252.969
  0
VERTEX
  8
MMIC_Label
  10
-284.847
  20
254.616
  0
VERTEX
  8
MMIC_Label
  10
-284.847
  20
266.53
  0
VERTEX
  8
MMIC_Label
  10
-284.792
  20
266.967
  0
VERTEX
  8
MMIC_Label
  10
-283.878
  20
268.034
  0
VERTEX
  8
MMIC_Label
  10
-283.529
  20
268.267
  0
VERTEX
  8
MMIC_Label
  10
-282.254
  20
268.607
  0
VERTEX
  8
MMIC_Label
  10
-281.667
  20
268.68
  0
VERTEX
  8
MMIC_Label
  10
-279.759
  20
268.362
  0
VERTEX
  8
MMIC_Label
  10
-279.252
  20
267.791
  0
VERTEX
  8
MMIC_Label
  10
-278.879
  20
267.194
  0
VERTEX
  8
MMIC_Label
  10
-278.617
  20
266.147
  0
VERTEX
  8
MMIC_Label
  10
-276.458
  20
266.688
  0
VERTEX
  8
MMIC_Label
  10
-276.911
  20
268.502
  0
VERTEX
  8
MMIC_Label
  10
-276.94
  20
268.548
  0
VERTEX
  8
MMIC_Label
  10
-278.893
  20
270.744
  0
VERTEX
  8
MMIC_Label
  10
-281.627
  20
271.2
  0
VERTEX
  8
MMIC_Label
  10
-282.64
  20
271.073
  0
VERTEX
  8
MMIC_Label
  10
-284.643
  20
270.539
  0
VERTEX
  8
MMIC_Label
  10
-287.404
  20
267.32
  0
VERTEX
  8
MMIC_Label
  10
-287.487
  20
266.65
  0
VERTEX
  8
MMIC_Label
  10
-287.487
  20
254.164
  0
VERTEX
  8
MMIC_Label
  10
-285.83
  20
250.683
  0
VERTEX
  8
MMIC_Label
  10
-284.457
  20
249.768
  0
VERTEX
  8
MMIC_Label
  10
-282.691
  20
249.415
  0
VERTEX
  8
MMIC_Label
  10
-279.341
  20
249.263
  0
VERTEX
  8
MMIC_Label
  10
-277.828
  20
250.062
  0
VERTEX
  8
MMIC_Label
  10
-276.708
  20
251.745
  0
SEQEND
  0
POLYLINE
  8
MMIC_Label
  70
1
  66
1
  0
VERTEX
  8
MMIC_Label
  10
-275.6
  20
275.2
  0
VERTEX
  8
MMIC_Label
  10
-275.6
  20
339.6
  0
VERTEX
  8
MMIC_Label
  10
-280.6
  20
339.6
  0
VERTEX
  8
MMIC_Label
  10
-280.6
  20
275.2
  0
SEQEND
  0
POLYLINE
  8
MMIC_Label
  70
1
  66
1
  0
VERTEX
  8
MMIC_Label
  10
-415.6
  20
280.2
  0
VERTEX
  8
MMIC_Label
  10
-440.6
  20
280.2
  0
VERTEX
  8
MMIC_Label
  10
-440.6
  20
275.2
  0
VERTEX
  8
MMIC_Label
  10
-415.6
  20
275.2
  0
SEQEND
  0
POLYLINE
  8
MMIC_Label
  70
1
  66
1
  0
VERTEX
  8
MMIC_Label
  10
-275.6
  20
339.6
  0
VERTEX
  8
MMIC_Label
  10
-290.6
  20
339.6
  0
VERTEX
  8
MMIC_Label
  10
-290.6
  20
330
  0
VERTEX
  8
MMIC_Label
  10
-295.6
  20
330
  0
VERTEX
  8
MMIC_Label
  10
-295.6
  20
339.6
  0
VERTEX
  8
MMIC_Label
  10
-320.6
  20
339.6
  0
VERTEX
  8
MMIC_Label
  10
-320.6
  20
330
  0
VERTEX
  8
MMIC_Label
  10
-325.6
  20
330
  0
VERTEX
  8
MMIC_Label
  10
-325.6
  20
339.6
  0
VERTEX
  8
MMIC_Label
  10
-350.6
  20
339.6
  0
VERTEX
  8
MMIC_Label
  10
-350.6
  20
330
  0
VERTEX
  8
MMIC_Label
  10
-355.6
  20
330
  0
VERTEX
  8
MMIC_Label
  10
-355.6
  20
339.6
  0
VERTEX
  8
MMIC_Label
  10
-380.6
  20
339.6
  0
VERTEX
  8
MMIC_Label
  10
-380.6
  20
330
  0
VERTEX
  8
MMIC_Label
  10
-385.6
  20
330
  0
VERTEX
  8
MMIC_Label
  10
-385.6
  20
339.6
  0
VERTEX
  8
MMIC_Label
  10
-410.6
  20
339.6
  0
VERTEX
  8
MMIC_Label
  10
-410.6
  20
330
  0
VERTEX
  8
MMIC_Label
  10
-415.6
  20
330
  0
VERTEX
  8
MMIC_Label
  10
-415.6
  20
339.6
  0
VERTEX
  8
MMIC_Label
  10
-430.6
  20
339.6
  0
VERTEX
  8
MMIC_Label
  10
-430.6
  20
275.2
  0
VERTEX
  8
MMIC_Label
  10
-415.6
  20
275.2
  0
VERTEX
  8
MMIC_Label
  10
-415.6
  20
285.6
  0
VERTEX
  8
MMIC_Label
  10
-410.6
  20
285.6
  0
VERTEX
  8
MMIC_Label
  10
-410.6
  20
275.2
  0
VERTEX
  8
MMIC_Label
  10
-385.6
  20
275.2
  0
VERTEX
  8
MMIC_Label
  10
-385.6
  20
285.6
  0
VERTEX
  8
MMIC_Label
  10
-380.6
  20
285.6
  0
VERTEX
  8
MMIC_Label
  10
-380.6
  20
275.2
  0
VERTEX
  8
MMIC_Label
  10
-355.6
  20
275.2
  0
VERTEX
  8
MMIC_Label
  10
-355.6
  20
285.6
  0
VERTEX
  8
MMIC_Label
  10
-350.6
  20
285.6
  0
VERTEX
  8
MMIC_Label
  10
-350.6
  20
275.2
  0
VERTEX
  8
MMIC_Label
  10
-325.6
  20
275.2
  0
VERTEX
  8
MMIC_Label
  10
-325.6
  20
285.6
  0
VERTEX
  8
MMIC_Label
  10
-320.6
  20
285.6
  0
VERTEX
  8
MMIC_Label
  10
-320.6
  20
275.2
  0
VERTEX
  8
MMIC_Label
  10
-295.6
  20
275.2
  0
VERTEX
  8
MMIC_Label
  10
-295.6
  20
285.6
  0
VERTEX
  8
MMIC_Label
  10
-290.6
  20
285.6
  0
VERTEX
  8
MMIC_Label
  10
-290.6
  20
275.2
  0
VERTEX
  8
MMIC_Label
  10
-275.6
  20
275.2
  0
SEQEND
  0
POLYLINE
  8
MMIC_Label
  70
1
  66
1
  0
VERTEX
  8
MMIC_Label
  10
-305.6
  20
275.2
  0
VERTEX
  8
MMIC_Label
  10
-305.6
  20
339.6
  0
VERTEX
  8
MMIC_Label
  10
-310.6
  20
339.6
  0
VERTEX
  8
MMIC_Label
  10
-310.6
  20
275.2
  0
SEQEND
  0
POLYLINE
  8
MMIC_Label
  70
1
  66
1
  0
VERTEX
  8
MMIC_Label
  10
-275.6
  20
310.7
  0
VERTEX
  8
MMIC_Label
  10
-460.6
  20
310.7
  0
VERTEX
  8
MMIC_Label
  10
-460.6
  20
305.7
  0
VERTEX
  8
MMIC_Label
  10
-275.6
  20
305.7
  0
SEQEND
  0
POLYLINE
  8
MMIC_Label
  70
1
  66
1
  0
VERTEX
  8
MMIC_Label
  10
299.79
  20
258.6
  0
VERTEX
  8
MMIC_Label
  10
309.69
  20
291.6
  0
VERTEX
  8
MMIC_Label
  10
317.28
  20
291.6
  0
VERTEX
  8
MMIC_Label
  10
327.18
  20
258.6
  0
VERTEX
  8
MMIC_Label
  10
320.25
  20
258.6
  0
VERTEX
  8
MMIC_Label
  10
318.6
  20
265.2
  0
VERTEX
  8
MMIC_Label
  10
308.7
  20
265.2
  0
VERTEX
  8
MMIC_Label
  10
307.05
  20
258.6
  0
SEQEND
  0
POLYLINE
  8
MMIC_Label
  70
1
  66
1
  0
VERTEX
  8
MMIC_Label
  10
-440.6
  20
339.6
  0
VERTEX
  8
MMIC_Label
  10
-415.6
  20
339.6
  0
VERTEX
  8
MMIC_Label
  10
-415.6
  20
334.6
  0
VERTEX
  8
MMIC_Label
  10
-440.6
  20
334.6
  0
SEQEND
  0
POLYLINE
  8
MMIC_Label
  70
1
  66
1
  0
VERTEX
  8
MMIC_Label
  10
-380.6
  20
339.6
  0
VERTEX
  8
MMIC_Label
  10
-355.6
  20
339.6
  0
VERTEX
  8
MMIC_Label
  10
-355.6
  20
334.6
  0
VERTEX
  8
MMIC_Label
  10
-380.6
  20
334.6
  0
SEQEND
  0
POLYLINE
  8
MMIC_Label
  70
1
  66
1
  0
VERTEX
  8
MMIC_Label
  10
395.8
  20
329.04
  0
VERTEX
  8
MMIC_Label
  10
395.14
  20
331.35
  0
VERTEX
  8
MMIC_Label
  10
394.15
  20
333.66
  0
VERTEX
  8
MMIC_Label
  10
392.83
  20
335.31
  0
VERTEX
  8
MMIC_Label
  10
391.18
  20
336.96
  0
VERTEX
  8
MMIC_Label
  10
389.53
  20
338.28
  0
VERTEX
  8
MMIC_Label
  10
387.22
  20
339.27
  0
VERTEX
  8
MMIC_Label
  10
385.24
  20
339.6
  0
VERTEX
  8
MMIC_Label
  10
379.96
  20
339.6
  0
VERTEX
  8
MMIC_Label
  10
377.65
  20
339.27
  0
VERTEX
  8
MMIC_Label
  10
375.34
  20
337.95
  0
VERTEX
  8
MMIC_Label
  10
373.69
  20
336.63
  0
VERTEX
  8
MMIC_Label
  10
372.04
  20
334.98
  0
VERTEX
  8
MMIC_Label
  10
370.72
  20
332.67
  0
VERTEX
  8
MMIC_Label
  10
369.73
  20
330.69
  0
VERTEX
  8
MMIC_Label
  10
369.07
  20
328.05
  0
VERTEX
  8
MMIC_Label
  10
368.74
  20
325.74
  0
VERTEX
  8
MMIC_Label
  10
368.41
  20
323.1
  0
VERTEX
  8
MMIC_Label
  10
368.74
  20
320.46
  0
VERTEX
  8
MMIC_Label
  10
369.07
  20
318.15
  0
VERTEX
  8
MMIC_Label
  10
369.73
  20
315.51
  0
VERTEX
  8
MMIC_Label
  10
370.72
  20
313.53
  0
VERTEX
  8
MMIC_Label
  10
372.04
  20
311.22
  0
VERTEX
  8
MMIC_Label
  10
373.69
  20
309.57
  0
VERTEX
  8
MMIC_Label
  10
375.34
  20
308.25
  0
VERTEX
  8
MMIC_Label
  10
377.65
  20
306.93
  0
VERTEX
  8
MMIC_Label
  10
379.96
  20
306.6
  0
VERTEX
  8
MMIC_Label
  10
384.58
  20
306.6
  0
VERTEX
  8
MMIC_Label
  10
386.56
  20
306.93
  0
VERTEX
  8
MMIC_Label
  10
389.86
  20
308.91
  0
VERTEX
  8
MMIC_Label
  10
390.85
  20
310.56
  0
VERTEX
  8
MMIC_Label
  10
392.17
  20
306.6
  0
VERTEX
  8
MMIC_Label
  10
395.8
  20
306.6
  0
VERTEX
  8
MMIC_Label
  10
395.8
  20
323.1
  0
VERTEX
  8
MMIC_Label
  10
383.26
  20
323.1
  0
VERTEX
  8
MMIC_Label
  10
383.26
  20
318.15
  0
VERTEX
  8
MMIC_Label
  10
389.2
  20
318.15
  0
VERTEX
  8
MMIC_Label
  10
388.87
  20
316.5
  0
VERTEX
  8
MMIC_Label
  10
388.21
  20
314.85
  0
VERTEX
  8
MMIC_Label
  10
387.22
  20
313.53
  0
VERTEX
  8
MMIC_Label
  10
385.9
  20
312.54
  0
VERTEX
  8
MMIC_Label
  10
384.58
  20
311.88
  0
VERTEX
  8
MMIC_Label
  10
382.6
  20
311.55
  0
VERTEX
  8
MMIC_Label
  10
380.95
  20
311.88
  0
VERTEX
  8
MMIC_Label
  10
379.3
  20
312.54
  0
VERTEX
  8
MMIC_Label
  10
377.98
  20
313.53
  0
VERTEX
  8
MMIC_Label
  10
376.66
  20
315.18
  0
VERTEX
  8
MMIC_Label
  10
376
  20
316.83
  0
VERTEX
  8
MMIC_Label
  10
375.34
  20
318.81
  0
VERTEX
  8
MMIC_Label
  10
375.01
  20
320.79
  0
VERTEX
  8
MMIC_Label
  10
375.01
  20
325.41
  0
VERTEX
  8
MMIC_Label
  10
375.34
  20
327.39
  0
VERTEX
  8
MMIC_Label
  10
376
  20
329.37
  0
VERTEX
  8
MMIC_Label
  10
376.66
  20
331.02
  0
VERTEX
  8
MMIC_Label
  10
377.98
  20
332.67
  0
VERTEX
  8
MMIC_Label
  10
379.3
  20
333.66
  0
VERTEX
  8
MMIC_Label
  10
380.95
  20
334.32
  0
VERTEX
  8
MMIC_Label
  10
382.6
  20
334.65
  0
VERTEX
  8
MMIC_Label
  10
384.58
  20
334.32
  0
VERTEX
  8
MMIC_Label
  10
386.23
  20
333.33
  0
VERTEX
  8
MMIC_Label
  10
387.55
  20
332.34
  0
VERTEX
  8
MMIC_Label
  10
388.54
  20
330.69
  0
VERTEX
  8
MMIC_Label
  10
389.2
  20
329.04
  0
SEQEND
  0
POLYLINE
  8
MMIC_Label
  70
1
  66
1
  0
VERTEX
  8
MMIC_Label
  10
-410.6
  20
339.6
  0
VERTEX
  8
MMIC_Label
  10
-385.6
  20
339.6
  0
VERTEX
  8
MMIC_Label
  10
-385.6
  20
334.6
  0
VERTEX
  8
MMIC_Label
  10
-410.6
  20
334.6
  0
SEQEND
  0
POLYLINE
  8
MMIC_Label
  70
1
  66
1
  0
VERTEX
  8
MMIC_Label
  10
-305.6
  20
275.2
  0
VERTEX
  8
MMIC_Label
  10
-305.6
  20
339.6
  0
VERTEX
  8
MMIC_Label
  10
-310.6
  20
339.6
  0
VERTEX
  8
MMIC_Label
  10
-310.6
  20
275.2
  0
SEQEND
  0
POLYLINE
  8
MMIC_Label
  70
1
  66
1
  0
VERTEX
  8
MMIC_Label
  10
365.39
  20
258.6
  0
VERTEX
  8
MMIC_Label
  10
365.39
  20
291.6
  0
VERTEX
  8
MMIC_Label
  10
371.99
  20
291.6
  0
VERTEX
  8
MMIC_Label
  10
386.84
  20
268.5
  0
VERTEX
  8
MMIC_Label
  10
386.84
  20
291.6
  0
VERTEX
  8
MMIC_Label
  10
392.78
  20
291.6
  0
VERTEX
  8
MMIC_Label
  10
392.78
  20
258.6
  0
VERTEX
  8
MMIC_Label
  10
386.84
  20
258.6
  0
VERTEX
  8
MMIC_Label
  10
371.33
  20
281.7
  0
VERTEX
  8
MMIC_Label
  10
371.33
  20
258.6
  0
SEQEND
  0
POLYLINE
  8
MMIC_Label
  70
1
  66
1
  0
VERTEX
  8
MMIC_Label
  10
-290.6
  20
339.6
  0
VERTEX
  8
MMIC_Label
  10
-275.6
  20
339.6
  0
VERTEX
  8
MMIC_Label
  10
-275.6
  20
334.6
  0
VERTEX
  8
MMIC_Label
  10
-290.6
  20
334.6
  0
SEQEND
  0
POLYLINE
  8
MMIC_Label
  70
1
  66
1
  0
VERTEX
  8
MMIC_Label
  10
-342.197
  20
256.63
  0
VERTEX
  8
MMIC_Label
  10
-349.507
  20
256.63
  0
VERTEX
  8
MMIC_Label
  10
-346.108
  20
263.92
  0
VERTEX
  8
MMIC_Label
  10
-345.86
  20
263.92
  0
VERTEX
  8
MMIC_Label
  10
-345.86
  20
259.09
  0
VERTEX
  8
MMIC_Label
  10
-343.341
  20
259.09
  0
VERTEX
  8
MMIC_Label
  10
-343.341
  20
269.79
  0
VERTEX
  8
MMIC_Label
  10
-345.52
  20
269.79
  0
VERTEX
  8
MMIC_Label
  10
-350.054
  20
260.203
  0
VERTEX
  8
MMIC_Label
  10
-351.686
  20
256.752
  0
VERTEX
  8
MMIC_Label
  10
-351.686
  20
254.379
  0
VERTEX
  8
MMIC_Label
  10
-346.53
  20
254.379
  0
VERTEX
  8
MMIC_Label
  10
-346.53
  20
249.59
  0
VERTEX
  8
MMIC_Label
  10
-344.011
  20
249.59
  0
VERTEX
  8
MMIC_Label
  10
-344.011
  20
254.379
  0
VERTEX
  8
MMIC_Label
  10
-342.197
  20
254.379
  0
SEQEND
  0
POLYLINE
  8
MMIC_Label
  70
1
  66
1
  0
VERTEX
  8
MMIC_Label
  10
-437
  20
325.4
  0
VERTEX
  8
MMIC_Label
  10
-437
  20
327.5
  0
VERTEX
  8
MMIC_Label
  10
-438.1
  20
329.4
  0
VERTEX
  8
MMIC_Label
  10
-439.3
  20
330.4
  0
VERTEX
  8
MMIC_Label
  10
-441.9
  20
331.3
  0
VERTEX
  8
MMIC_Label
  10
-450.1
  20
331.3
  0
VERTEX
  8
MMIC_Label
  10
-450.1
  20
314.8
  0
VERTEX
  8
MMIC_Label
  10
-447.1
  20
314.8
  0
VERTEX
  8
MMIC_Label
  10
-447.1
  20
328.3
  0
VERTEX
  8
MMIC_Label
  10
-442.4
  20
328.3
  0
VERTEX
  8
MMIC_Label
  10
-440.8
  20
327.7
  0
VERTEX
  8
MMIC_Label
  10
-440.5
  20
327.5
  0
VERTEX
  8
MMIC_Label
  10
-440
  20
326.7
  0
VERTEX
  8
MMIC_Label
  10
-440
  20
326.1
  0
VERTEX
  8
MMIC_Label
  10
-440.7
  20
324.8
  0
VERTEX
  8
MMIC_Label
  10
-440.9
  20
324.7
  0
VERTEX
  8
MMIC_Label
  10
-442.5
  20
324.1
  0
VERTEX
  8
MMIC_Label
  10
-445.6
  20
324.1
  0
VERTEX
  8
MMIC_Label
  10
-445.6
  20
321.1
  0
VERTEX
  8
MMIC_Label
  10
-444.3
  20
321.1
  0
VERTEX
  8
MMIC_Label
  10
-439.8
  20
314
  0
VERTEX
  8
MMIC_Label
  10
-437.3
  20
315.6
  0
VERTEX
  8
MMIC_Label
  10
-441
  20
321.5
  0
VERTEX
  8
MMIC_Label
  10
-439.2
  20
322
  0
VERTEX
  8
MMIC_Label
  10
-438.2
  20
323.1
  0
SEQEND
  0
POLYLINE
  8
MMIC_Label
  70
1
  66
1
  0
VERTEX
  8
MMIC_Label
  10
-295.6
  20
280.2
  0
VERTEX
  8
MMIC_Label
  10
-320.6
  20
280.2
  0
VERTEX
  8
MMIC_Label
  10
-320.6
  20
275.2
  0
VERTEX
  8
MMIC_Label
  10
-295.6
  20
275.2
  0
SEQEND
  0
POLYLINE
  8
MMIC_Label
  70
1
  66
1
  0
VERTEX
  8
MMIC_Label
  10
-372.318
  20
252.141
  0
VERTEX
  8
MMIC_Label
  10
-378.883
  20
252.141
  0
VERTEX
  8
MMIC_Label
  10
-378.667
  20
252.662
  0
VERTEX
  8
MMIC_Label
  10
-377.832
  20
253.962
  0
VERTEX
  8
MMIC_Label
  10
-376.342
  20
255.809
  0
VERTEX
  8
MMIC_Label
  10
-374.553
  20
258.043
  0
VERTEX
  8
MMIC_Label
  10
-373.781
  20
259.327
  0
VERTEX
  8
MMIC_Label
  10
-373.007
  20
260.615
  0
VERTEX
  8
MMIC_Label
  10
-372.672
  20
261.783
  0
VERTEX
  8
MMIC_Label
  10
-372.336
  20
262.95
  0
VERTEX
  8
MMIC_Label
  10
-372.336
  20
266.543
  0
VERTEX
  8
MMIC_Label
  10
-373.486
  20
268.158
  0
VERTEX
  8
MMIC_Label
  10
-374.648
  20
269.79
  0
VERTEX
  8
MMIC_Label
  10
-378.613
  20
269.79
  0
VERTEX
  8
MMIC_Label
  10
-380.944
  20
266.779
  0
VERTEX
  8
MMIC_Label
  10
-381.125
  20
263.844
  0
VERTEX
  8
MMIC_Label
  10
-379.234
  20
263.557
  0
VERTEX
  8
MMIC_Label
  10
-379.226
  20
263.564
  0
VERTEX
  8
MMIC_Label
  10
-379.218
  20
263.57
  0
VERTEX
  8
MMIC_Label
  10
-379.209
  20
265.515
  0
VERTEX
  8
MMIC_Label
  10
-378.509
  20
266.55
  0
VERTEX
  8
MMIC_Label
  10
-378.118
  20
267.126
  0
VERTEX
  8
MMIC_Label
  10
-375.287
  20
267.126
  0
VERTEX
  8
MMIC_Label
  10
-374.578
  20
266.12
  0
VERTEX
  8
MMIC_Label
  10
-374.578
  20
262.168
  0
VERTEX
  8
MMIC_Label
  10
-375.768
  20
259.772
  0
VERTEX
  8
MMIC_Label
  10
-377.959
  20
257.118
  0
VERTEX
  8
MMIC_Label
  10
-377.96
  20
257.118
  0
VERTEX
  8
MMIC_Label
  10
-379.382
  20
255.399
  0
VERTEX
  8
MMIC_Label
  10
-380.137
  20
254.088
  0
VERTEX
  8
MMIC_Label
  10
-380.894
  20
252.771
  0
VERTEX
  8
MMIC_Label
  10
-381.236
  20
251.415
  0
VERTEX
  8
MMIC_Label
  10
-381.452
  20
250.585
  0
VERTEX
  8
MMIC_Label
  10
-381.431
  20
249.59
  0
VERTEX
  8
MMIC_Label
  10
-372.318
  20
249.59
  0
SEQEND
  0
POLYLINE
  8
MMIC_Label
  70
1
  66
1
  0
VERTEX
  8
MMIC_Label
  10
-290.6
  20
334.6
  0
VERTEX
  8
MMIC_Label
  10
-275.6
  20
334.6
  0
VERTEX
  8
MMIC_Label
  10
-275.6
  20
339.6
  0
VERTEX
  8
MMIC_Label
  10
-290.6
  20
339.6
  0
SEQEND
  0
POLYLINE
  8
MMIC_Label
  70
1
  66
1
  0
VERTEX
  8
MMIC_Label
  10
-315.252
  20
257.467
  0
VERTEX
  8
MMIC_Label
  10
-315.89
  20
258.766
  0
VERTEX
  8
MMIC_Label
  10
-316.534
  20
260.073
  0
VERTEX
  8
MMIC_Label
  10
-317.591
  20
260.578
  0
VERTEX
  8
MMIC_Label
  10
-316.764
  20
261.034
  0
VERTEX
  8
MMIC_Label
  10
-316.274
  20
262.044
  0
VERTEX
  8
MMIC_Label
  10
-315.788
  20
263.049
  0
VERTEX
  8
MMIC_Label
  10
-315.788
  20
266.516
  0
VERTEX
  8
MMIC_Label
  10
-316.849
  20
267.996
  0
VERTEX
  8
MMIC_Label
  10
-317.454
  20
268.84
  0
VERTEX
  8
MMIC_Label
  10
-317.921
  20
269.49
  0
VERTEX
  8
MMIC_Label
  10
-318.665
  20
269.49
  0
VERTEX
  8
MMIC_Label
  10
-318.665
  20
267.156
  0
VERTEX
  8
MMIC_Label
  10
-318.228
  20
266.525
  0
VERTEX
  8
MMIC_Label
  10
-318.066
  20
266.292
  0
VERTEX
  8
MMIC_Label
  10
-318.066
  20
262.587
  0
VERTEX
  8
MMIC_Label
  10
-318.21
  20
262.379
  0
VERTEX
  8
MMIC_Label
  10
-318.432
  20
262.06
  0
VERTEX
  8
MMIC_Label
  10
-320.887
  20
262.06
  0
VERTEX
  8
MMIC_Label
  10
-321.114
  20
262.387
  0
VERTEX
  8
MMIC_Label
  10
-321.294
  20
262.646
  0
VERTEX
  8
MMIC_Label
  10
-321.294
  20
266.278
  0
VERTEX
  8
MMIC_Label
  10
-320.665
  20
267.171
  0
VERTEX
  8
MMIC_Label
  10
-320.665
  20
269.49
  0
VERTEX
  8
MMIC_Label
  10
-321.435
  20
269.49
  0
VERTEX
  8
MMIC_Label
  10
-322.489
  20
268.029
  0
VERTEX
  8
MMIC_Label
  10
-323.534
  20
266.582
  0
VERTEX
  8
MMIC_Label
  10
-323.534
  20
263.063
  0
VERTEX
  8
MMIC_Label
  10
-322.546
  20
261.033
  0
VERTEX
  8
MMIC_Label
  10
-321.841
  20
260.654
  0
VERTEX
  8
MMIC_Label
  10
-321.714
  20
260.586
  0
VERTEX
  8
MMIC_Label
  10
-322.739
  20
260.194
  0
VERTEX
  8
MMIC_Label
  10
-323.403
  20
258.904
  0
VERTEX
  8
MMIC_Label
  10
-324.058
  20
257.626
  0
VERTEX
  8
MMIC_Label
  10
-324.058
  20
253.204
  0
VERTEX
  8
MMIC_Label
  10
-322.856
  20
251.507
  0
VERTEX
  8
MMIC_Label
  10
-322.394
  20
250.85
  0
VERTEX
  8
MMIC_Label
  10
-321.64
  20
249.79
  0
VERTEX
  8
MMIC_Label
  10
-320.543
  20
249.79
  0
VERTEX
  8
MMIC_Label
  10
-320.543
  20
252.079
  0
VERTEX
  8
MMIC_Label
  10
-320.955
  20
252.41
  0
VERTEX
  8
MMIC_Label
  10
-321.303
  20
252.689
  0
VERTEX
  8
MMIC_Label
  10
-321.912
  20
254.439
  0
VERTEX
  8
MMIC_Label
  10
-321.912
  20
257.775
  0
VERTEX
  8
MMIC_Label
  10
-321.483
  20
258.404
  0
VERTEX
  8
MMIC_Label
  10
-320.771
  20
259.454
  0
VERTEX
  8
MMIC_Label
  10
-318.586
  20
259.454
  0
VERTEX
  8
MMIC_Label
  10
-317.844
  20
258.391
  0
VERTEX
  8
MMIC_Label
  10
-317.432
  20
257.798
  0
VERTEX
  8
MMIC_Label
  10
-317.432
  20
253.52
  0
VERTEX
  8
MMIC_Label
  10
-317.822
  20
252.955
  0
VERTEX
  8
MMIC_Label
  10
-318.542
  20
251.918
  0
VERTEX
  8
MMIC_Label
  10
-318.542
  20
249.79
  0
VERTEX
  8
MMIC_Label
  10
-317.67
  20
249.79
  0
VERTEX
  8
MMIC_Label
  10
-316.456
  20
251.498
  0
VERTEX
  8
MMIC_Label
  10
-315.252
  20
253.192
  0
SEQEND
  0
POLYLINE
  8
MMIC_Label
  70
1
  66
1
  0
VERTEX
  8
MMIC_Label
  10
-305.6
  20
280.2
  0
VERTEX
  8
MMIC_Label
  10
-320.6
  20
280.2
  0
VERTEX
  8
MMIC_Label
  10
-320.6
  20
275.2
  0
VERTEX
  8
MMIC_Label
  10
-305.6
  20
275.2
  0
SEQEND
  0
POLYLINE
  8
MMIC_Label
  70
1
  66
1
  0
VERTEX
  8
MMIC_Label
  10
-298.728
  20
249.69
  0
VERTEX
  8
MMIC_Label
  10
-302.907
  20
257.326
  0
VERTEX
  8
MMIC_Label
  10
-299.024
  20
264.119
  0
VERTEX
  8
MMIC_Label
  10
-301.849
  20
264.119
  0
VERTEX
  8
MMIC_Label
  10
-303.742
  20
260.709
  0
VERTEX
  8
MMIC_Label
  10
-304.134
  20
260.016
  0
VERTEX
  8
MMIC_Label
  10
-304.599
  20
259.119
  0
VERTEX
  8
MMIC_Label
  10
-304.896
  20
259.772
  0
VERTEX
  8
MMIC_Label
  10
-305.382
  20
260.736
  0
VERTEX
  8
MMIC_Label
  10
-307.107
  20
264.119
  0
VERTEX
  8
MMIC_Label
  10
-310.037
  20
264.119
  0
VERTEX
  8
MMIC_Label
  10
-306.239
  20
257.19
  0
VERTEX
  8
MMIC_Label
  10
-310.344
  20
249.69
  0
VERTEX
  8
MMIC_Label
  10
-307.488
  20
249.69
  0
VERTEX
  8
MMIC_Label
  10
-304.536
  20
255.383
  0
VERTEX
  8
MMIC_Label
  10
-303.922
  20
254.174
  0
VERTEX
  8
MMIC_Label
  10
-301.616
  20
249.69
  0
SEQEND
  0
POLYLINE
  8
MMIC_Label
  70
1
  66
1
  0
VERTEX
  8
MMIC_Label
  10
-325.6
  20
280.2
  0
VERTEX
  8
MMIC_Label
  10
-350.6
  20
280.2
  0
VERTEX
  8
MMIC_Label
  10
-350.6
  20
275.2
  0
VERTEX
  8
MMIC_Label
  10
-325.6
  20
275.2
  0
SEQEND
  0
POLYLINE
  8
MMIC_Label
  70
1
  66
1
  0
VERTEX
  8
MMIC_Label
  10
244.09
  20
270.15
  0
VERTEX
  8
MMIC_Label
  10
248.05
  20
284.34
  0
VERTEX
  8
MMIC_Label
  10
251.68
  20
270.15
  0
SEQEND
  0
POLYLINE
  8
MMIC_Label
  70
1
  66
1
  0
VERTEX
  8
MMIC_Label
  10
-290.575
  20
269.79
  0
VERTEX
  8
MMIC_Label
  10
-292.991
  20
269.79
  0
VERTEX
  8
MMIC_Label
  10
-294.317
  20
266.351
  0
VERTEX
  8
MMIC_Label
  10
-294.856
  20
265.732
  0
VERTEX
  8
MMIC_Label
  10
-296.488
  20
264.746
  0
VERTEX
  8
MMIC_Label
  10
-296.488
  20
262.222
  0
VERTEX
  8
MMIC_Label
  10
-296.464
  20
262.206
  0
VERTEX
  8
MMIC_Label
  10
-296.439
  20
262.191
  0
VERTEX
  8
MMIC_Label
  10
-295.448
  20
262.661
  0
VERTEX
  8
MMIC_Label
  10
-294.323
  20
263.509
  0
VERTEX
  8
MMIC_Label
  10
-294.319
  20
263.512
  0
VERTEX
  8
MMIC_Label
  10
-294.037
  20
263.857
  0
VERTEX
  8
MMIC_Label
  10
-294.037
  20
263.82
  0
VERTEX
  8
MMIC_Label
  10
-293.109
  20
263.82
  0
VERTEX
  8
MMIC_Label
  10
-293.109
  20
249.59
  0
VERTEX
  8
MMIC_Label
  10
-290.575
  20
249.59
  0
SEQEND
  0
POLYLINE
  8
MMIC_Label
  70
1
  66
1
  0
VERTEX
  8
MMIC_Label
  10
-335.6
  20
275.2
  0
VERTEX
  8
MMIC_Label
  10
-335.6
  20
339.6
  0
VERTEX
  8
MMIC_Label
  10
-340.6
  20
339.6
  0
VERTEX
  8
MMIC_Label
  10
-340.6
  20
275.2
  0
SEQEND
  0
POLYLINE
  8
MMIC_Label
  70
1
  66
1
  0
VERTEX
  8
MMIC_Label
  10
-320.6
  20
334.6
  0
VERTEX
  8
MMIC_Label
  10
-295.6
  20
334.6
  0
VERTEX
  8
MMIC_Label
  10
-295.6
  20
339.6
  0
VERTEX
  8
MMIC_Label
  10
-320.6
  20
339.6
  0
SEQEND
  0
POLYLINE
  8
MMIC_Label
  70
1
  66
1
  0
VERTEX
  8
MMIC_Label
  10
-460.6
  20
339.6
  0
VERTEX
  8
MMIC_Label
  10
-445.6
  20
339.6
  0
VERTEX
  8
MMIC_Label
  10
-445.6
  20
334.6
  0
VERTEX
  8
MMIC_Label
  10
-460.6
  20
334.6
  0
SEQEND
  0
POLYLINE
  8
MMIC_Label
  70
1
  66
1
  0
VERTEX
  8
MMIC_Label
  10
-320.6
  20
339.6
  0
VERTEX
  8
MMIC_Label
  10
-295.6
  20
339.6
  0
VERTEX
  8
MMIC_Label
  10
-295.6
  20
334.6
  0
VERTEX
  8
MMIC_Label
  10
-320.6
  20
334.6
  0
SEQEND
  0
POLYLINE
  8
MMIC_Label
  70
1
  66
1
  0
VERTEX
  8
MMIC_Label
  10
402.86
  20
306.6
  0
VERTEX
  8
MMIC_Label
  10
402.86
  20
311.55
  0
VERTEX
  8
MMIC_Label
  10
410.12
  20
311.55
  0
VERTEX
  8
MMIC_Label
  10
410.12
  20
328.71
  0
VERTEX
  8
MMIC_Label
  10
401.21
  20
328.71
  0
VERTEX
  8
MMIC_Label
  10
401.21
  20
333
  0
VERTEX
  8
MMIC_Label
  10
402.86
  20
333
  0
VERTEX
  8
MMIC_Label
  10
404.84
  20
333.33
  0
VERTEX
  8
MMIC_Label
  10
406.82
  20
333.99
  0
VERTEX
  8
MMIC_Label
  10
408.47
  20
334.65
  0
VERTEX
  8
MMIC_Label
  10
409.79
  20
335.97
  0
VERTEX
  8
MMIC_Label
  10
410.78
  20
337.62
  0
VERTEX
  8
MMIC_Label
  10
411.11
  20
339.6
  0
VERTEX
  8
MMIC_Label
  10
416.72
  20
339.6
  0
VERTEX
  8
MMIC_Label
  10
416.72
  20
311.55
  0
VERTEX
  8
MMIC_Label
  10
423.98
  20
311.55
  0
VERTEX
  8
MMIC_Label
  10
423.98
  20
306.6
  0
SEQEND
  0
POLYLINE
  8
MMIC_Label
  70
1
  66
1
  0
VERTEX
  8
MMIC_Label
  10
-350.6
  20
339.6
  0
VERTEX
  8
MMIC_Label
  10
-325.6
  20
339.6
  0
VERTEX
  8
MMIC_Label
  10
-325.6
  20
334.6
  0
VERTEX
  8
MMIC_Label
  10
-350.6
  20
334.6
  0
SEQEND
  0
POLYLINE
  8
MMIC_Label
  70
1
  66
1
  0
VERTEX
  8
MMIC_Label
  10
-437.3
  20
286.8
  0
VERTEX
  8
MMIC_Label
  10
-439
  20
285.1
  0
VERTEX
  8
MMIC_Label
  10
-441
  20
284.1
  0
VERTEX
  8
MMIC_Label
  10
-444.8
  20
284.1
  0
VERTEX
  8
MMIC_Label
  10
-446.7
  20
285.2
  0
VERTEX
  8
MMIC_Label
  10
-448.3
  20
287
  0
VERTEX
  8
MMIC_Label
  10
-449.2
  20
288.6
  0
VERTEX
  8
MMIC_Label
  10
-450.1
  20
291.2
  0
VERTEX
  8
MMIC_Label
  10
-450.1
  20
293.7
  0
VERTEX
  8
MMIC_Label
  10
-449.2
  20
296.1
  0
VERTEX
  8
MMIC_Label
  10
-448.3
  20
297.9
  0
VERTEX
  8
MMIC_Label
  10
-446.6
  20
299.6
  0
VERTEX
  8
MMIC_Label
  10
-444.6
  20
300.6
  0
VERTEX
  8
MMIC_Label
  10
-440.8
  20
300.6
  0
VERTEX
  8
MMIC_Label
  10
-439.1
  20
299.6
  0
VERTEX
  8
MMIC_Label
  10
-437.3
  20
297.9
  0
VERTEX
  8
MMIC_Label
  10
-436.4
  20
296.2
  0
VERTEX
  8
MMIC_Label
  10
-439.1
  20
294.8
  0
VERTEX
  8
MMIC_Label
  10
-439.7
  20
296.1
  0
VERTEX
  8
MMIC_Label
  10
-440.9
  20
297.1
  0
VERTEX
  8
MMIC_Label
  10
-441.6
  20
297.6
  0
VERTEX
  8
MMIC_Label
  10
-443.9
  20
297.6
  0
VERTEX
  8
MMIC_Label
  10
-444.8
  20
297.1
  0
VERTEX
  8
MMIC_Label
  10
-445.8
  20
296.1
  0
VERTEX
  8
MMIC_Label
  10
-446.4
  20
294.9
  0
VERTEX
  8
MMIC_Label
  10
-447.1
  20
293.1
  0
VERTEX
  8
MMIC_Label
  10
-447.1
  20
291.7
  0
VERTEX
  8
MMIC_Label
  10
-446.4
  20
289.8
  0
VERTEX
  8
MMIC_Label
  10
-445.8
  20
288.7
  0
VERTEX
  8
MMIC_Label
  10
-444.8
  20
287.5
  0
VERTEX
  8
MMIC_Label
  10
-444
  20
287.1
  0
VERTEX
  8
MMIC_Label
  10
-441.7
  20
287.1
  0
VERTEX
  8
MMIC_Label
  10
-440.8
  20
287.6
  0
VERTEX
  8
MMIC_Label
  10
-439.8
  20
288.6
  0
VERTEX
  8
MMIC_Label
  10
-439.1
  20
289.9
  0
VERTEX
  8
MMIC_Label
  10
-436.4
  20
288.5
  0
SEQEND
  0
POLYLINE
  8
MMIC_Label
  70
1
  66
1
  0
VERTEX
  8
MMIC_Label
  10
294.38
  20
281.04
  0
VERTEX
  8
MMIC_Label
  10
293.72
  20
283.35
  0
VERTEX
  8
MMIC_Label
  10
292.73
  20
285.66
  0
VERTEX
  8
MMIC_Label
  10
291.41
  20
287.31
  0
VERTEX
  8
MMIC_Label
  10
289.76
  20
288.96
  0
VERTEX
  8
MMIC_Label
  10
288.11
  20
290.28
  0
VERTEX
  8
MMIC_Label
  10
285.8
  20
291.27
  0
VERTEX
  8
MMIC_Label
  10
283.82
  20
291.6
  0
VERTEX
  8
MMIC_Label
  10
278.54
  20
291.6
  0
VERTEX
  8
MMIC_Label
  10
276.23
  20
291.27
  0
VERTEX
  8
MMIC_Label
  10
273.92
  20
289.95
  0
VERTEX
  8
MMIC_Label
  10
272.27
  20
288.63
  0
VERTEX
  8
MMIC_Label
  10
270.62
  20
286.98
  0
VERTEX
  8
MMIC_Label
  10
269.3
  20
284.67
  0
VERTEX
  8
MMIC_Label
  10
268.31
  20
282.69
  0
VERTEX
  8
MMIC_Label
  10
267.65
  20
280.05
  0
VERTEX
  8
MMIC_Label
  10
267.32
  20
277.74
  0
VERTEX
  8
MMIC_Label
  10
266.99
  20
275.1
  0
VERTEX
  8
MMIC_Label
  10
267.32
  20
272.46
  0
VERTEX
  8
MMIC_Label
  10
267.65
  20
270.15
  0
VERTEX
  8
MMIC_Label
  10
268.31
  20
267.51
  0
VERTEX
  8
MMIC_Label
  10
269.3
  20
265.53
  0
VERTEX
  8
MMIC_Label
  10
270.62
  20
263.22
  0
VERTEX
  8
MMIC_Label
  10
272.27
  20
261.57
  0
VERTEX
  8
MMIC_Label
  10
273.92
  20
260.25
  0
VERTEX
  8
MMIC_Label
  10
276.23
  20
258.93
  0
VERTEX
  8
MMIC_Label
  10
278.54
  20
258.6
  0
VERTEX
  8
MMIC_Label
  10
283.16
  20
258.6
  0
VERTEX
  8
MMIC_Label
  10
285.14
  20
258.93
  0
VERTEX
  8
MMIC_Label
  10
288.44
  20
260.91
  0
VERTEX
  8
MMIC_Label
  10
289.43
  20
262.56
  0
VERTEX
  8
MMIC_Label
  10
290.75
  20
258.6
  0
VERTEX
  8
MMIC_Label
  10
294.38
  20
258.6
  0
VERTEX
  8
MMIC_Label
  10
294.38
  20
275.1
  0
VERTEX
  8
MMIC_Label
  10
281.84
  20
275.1
  0
VERTEX
  8
MMIC_Label
  10
281.84
  20
270.15
  0
VERTEX
  8
MMIC_Label
  10
287.78
  20
270.15
  0
VERTEX
  8
MMIC_Label
  10
287.45
  20
268.5
  0
VERTEX
  8
MMIC_Label
  10
286.79
  20
266.85
  0
VERTEX
  8
MMIC_Label
  10
285.8
  20
265.53
  0
VERTEX
  8
MMIC_Label
  10
284.48
  20
264.54
  0
VERTEX
  8
MMIC_Label
  10
283.16
  20
263.88
  0
VERTEX
  8
MMIC_Label
  10
281.18
  20
263.55
  0
VERTEX
  8
MMIC_Label
  10
279.53
  20
263.88
  0
VERTEX
  8
MMIC_Label
  10
277.88
  20
264.54
  0
VERTEX
  8
MMIC_Label
  10
276.56
  20
265.53
  0
VERTEX
  8
MMIC_Label
  10
275.24
  20
267.18
  0
VERTEX
  8
MMIC_Label
  10
274.58
  20
268.83
  0
VERTEX
  8
MMIC_Label
  10
273.92
  20
270.81
  0
VERTEX
  8
MMIC_Label
  10
273.59
  20
272.79
  0
VERTEX
  8
MMIC_Label
  10
273.59
  20
277.41
  0
VERTEX
  8
MMIC_Label
  10
273.92
  20
279.39
  0
VERTEX
  8
MMIC_Label
  10
274.58
  20
281.37
  0
VERTEX
  8
MMIC_Label
  10
275.24
  20
283.02
  0
VERTEX
  8
MMIC_Label
  10
276.56
  20
284.67
  0
VERTEX
  8
MMIC_Label
  10
277.88
  20
285.66
  0
VERTEX
  8
MMIC_Label
  10
279.53
  20
286.32
  0
VERTEX
  8
MMIC_Label
  10
281.18
  20
286.65
  0
VERTEX
  8
MMIC_Label
  10
283.16
  20
286.32
  0
VERTEX
  8
MMIC_Label
  10
284.81
  20
285.33
  0
VERTEX
  8
MMIC_Label
  10
286.13
  20
284.34
  0
VERTEX
  8
MMIC_Label
  10
287.12
  20
282.69
  0
VERTEX
  8
MMIC_Label
  10
287.78
  20
281.04
  0
SEQEND
  0
POLYLINE
  8
MMIC_Label
  70
1
  66
1
  0
VERTEX
  8
MMIC_Label
  10
-365.6
  20
275.2
  0
VERTEX
  8
MMIC_Label
  10
-365.6
  20
339.6
  0
VERTEX
  8
MMIC_Label
  10
-370.6
  20
339.6
  0
VERTEX
  8
MMIC_Label
  10
-370.6
  20
275.2
  0
SEQEND
  0
POLYLINE
  8
MMIC_Label
  70
1
  66
1
  0
VERTEX
  8
MMIC_Label
  10
455.41
  20
332.34
  0
VERTEX
  8
MMIC_Label
  10
454.42
  20
334.32
  0
VERTEX
  8
MMIC_Label
  10
453.1
  20
336.3
  0
VERTEX
  8
MMIC_Label
  10
451.45
  20
337.62
  0
VERTEX
  8
MMIC_Label
  10
447.49
  20
339.6
  0
VERTEX
  8
MMIC_Label
  10
440.56
  20
339.6
  0
VERTEX
  8
MMIC_Label
  10
438.25
  20
339.27
  0
VERTEX
  8
MMIC_Label
  10
435.94
  20
337.95
  0
VERTEX
  8
MMIC_Label
  10
433.96
  20
336.63
  0
VERTEX
  8
MMIC_Label
  10
432.64
  20
334.98
  0
VERTEX
  8
MMIC_Label
  10
431.32
  20
332.67
  0
VERTEX
  8
MMIC_Label
  10
430.33
  20
330.69
  0
VERTEX
  8
MMIC_Label
  10
429.34
  20
328.05
  0
VERTEX
  8
MMIC_Label
  10
429.01
  20
325.74
  0
VERTEX
  8
MMIC_Label
  10
429.01
  20
320.46
  0
VERTEX
  8
MMIC_Label
  10
429.34
  20
318.15
  0
VERTEX
  8
MMIC_Label
  10
430.33
  20
315.51
  0
VERTEX
  8
MMIC_Label
  10
431.32
  20
313.53
  0
VERTEX
  8
MMIC_Label
  10
432.64
  20
311.22
  0
VERTEX
  8
MMIC_Label
  10
433.96
  20
309.57
  0
VERTEX
  8
MMIC_Label
  10
435.94
  20
308.25
  0
VERTEX
  8
MMIC_Label
  10
438.25
  20
306.93
  0
VERTEX
  8
MMIC_Label
  10
440.56
  20
306.6
  0
VERTEX
  8
MMIC_Label
  10
447.49
  20
306.6
  0
VERTEX
  8
MMIC_Label
  10
449.47
  20
307.26
  0
VERTEX
  8
MMIC_Label
  10
451.45
  20
308.58
  0
VERTEX
  8
MMIC_Label
  10
453.1
  20
309.9
  0
VERTEX
  8
MMIC_Label
  10
454.42
  20
311.22
  0
VERTEX
  8
MMIC_Label
  10
455.74
  20
313.2
  0
VERTEX
  8
MMIC_Label
  10
456.4
  20
315.18
  0
VERTEX
  8
MMIC_Label
  10
456.4
  20
317.49
  0
VERTEX
  8
MMIC_Label
  10
456.07
  20
319.8
  0
VERTEX
  8
MMIC_Label
  10
455.41
  20
322.11
  0
VERTEX
  8
MMIC_Label
  10
452.77
  20
325.41
  0
VERTEX
  8
MMIC_Label
  10
448.81
  20
327.39
  0
VERTEX
  8
MMIC_Label
  10
446.5
  20
328.05
  0
VERTEX
  8
MMIC_Label
  10
444.52
  20
328.05
  0
VERTEX
  8
MMIC_Label
  10
441.88
  20
327.72
  0
VERTEX
  8
MMIC_Label
  10
439.57
  20
327.06
  0
VERTEX
  8
MMIC_Label
  10
437.59
  20
325.74
  0
VERTEX
  8
MMIC_Label
  10
435.61
  20
324.09
  0
VERTEX
  8
MMIC_Label
  10
435.61
  20
326.07
  0
VERTEX
  8
MMIC_Label
  10
435.94
  20
327.72
  0
VERTEX
  8
MMIC_Label
  10
436.6
  20
329.7
  0
VERTEX
  8
MMIC_Label
  10
438.58
  20
333
  0
VERTEX
  8
MMIC_Label
  10
439.9
  20
333.99
  0
VERTEX
  8
MMIC_Label
  10
441.88
  20
334.98
  0
VERTEX
  8
MMIC_Label
  10
443.86
  20
335.31
  0
VERTEX
  8
MMIC_Label
  10
445.51
  20
334.98
  0
VERTEX
  8
MMIC_Label
  10
448.15
  20
333.66
  0
VERTEX
  8
MMIC_Label
  10
449.47
  20
332.34
  0
SEQEND
  0
POLYLINE
  8
MMIC_Label
  70
1
  66
1
  0
VERTEX
  8
MMIC_Label
  10
395.8
  20
329.04
  0
VERTEX
  8
MMIC_Label
  10
395.14
  20
331.35
  0
VERTEX
  8
MMIC_Label
  10
394.15
  20
333.66
  0
VERTEX
  8
MMIC_Label
  10
392.83
  20
335.31
  0
VERTEX
  8
MMIC_Label
  10
391.18
  20
336.96
  0
VERTEX
  8
MMIC_Label
  10
389.53
  20
338.28
  0
VERTEX
  8
MMIC_Label
  10
387.22
  20
339.27
  0
VERTEX
  8
MMIC_Label
  10
385.24
  20
339.6
  0
VERTEX
  8
MMIC_Label
  10
379.96
  20
339.6
  0
VERTEX
  8
MMIC_Label
  10
377.65
  20
339.27
  0
VERTEX
  8
MMIC_Label
  10
375.34
  20
337.95
  0
VERTEX
  8
MMIC_Label
  10
373.69
  20
336.63
  0
VERTEX
  8
MMIC_Label
  10
372.04
  20
334.98
  0
VERTEX
  8
MMIC_Label
  10
370.72
  20
332.67
  0
VERTEX
  8
MMIC_Label
  10
369.73
  20
330.69
  0
VERTEX
  8
MMIC_Label
  10
369.07
  20
328.05
  0
VERTEX
  8
MMIC_Label
  10
368.74
  20
325.74
  0
VERTEX
  8
MMIC_Label
  10
368.41
  20
323.1
  0
VERTEX
  8
MMIC_Label
  10
368.74
  20
320.46
  0
VERTEX
  8
MMIC_Label
  10
369.07
  20
318.15
  0
VERTEX
  8
MMIC_Label
  10
369.73
  20
315.51
  0
VERTEX
  8
MMIC_Label
  10
370.72
  20
313.53
  0
VERTEX
  8
MMIC_Label
  10
372.04
  20
311.22
  0
VERTEX
  8
MMIC_Label
  10
373.69
  20
309.57
  0
VERTEX
  8
MMIC_Label
  10
375.34
  20
308.25
  0
VERTEX
  8
MMIC_Label
  10
377.65
  20
306.93
  0
VERTEX
  8
MMIC_Label
  10
379.96
  20
306.6
  0
VERTEX
  8
MMIC_Label
  10
384.58
  20
306.6
  0
VERTEX
  8
MMIC_Label
  10
386.56
  20
306.93
  0
VERTEX
  8
MMIC_Label
  10
389.86
  20
308.91
  0
VERTEX
  8
MMIC_Label
  10
390.85
  20
310.56
  0
VERTEX
  8
MMIC_Label
  10
392.17
  20
306.6
  0
VERTEX
  8
MMIC_Label
  10
395.8
  20
306.6
  0
VERTEX
  8
MMIC_Label
  10
395.8
  20
323.1
  0
VERTEX
  8
MMIC_Label
  10
383.26
  20
323.1
  0
VERTEX
  8
MMIC_Label
  10
383.26
  20
318.15
  0
VERTEX
  8
MMIC_Label
  10
389.2
  20
318.15
  0
VERTEX
  8
MMIC_Label
  10
388.87
  20
316.5
  0
VERTEX
  8
MMIC_Label
  10
388.21
  20
314.85
  0
VERTEX
  8
MMIC_Label
  10
387.22
  20
313.53
  0
VERTEX
  8
MMIC_Label
  10
385.9
  20
312.54
  0
VERTEX
  8
MMIC_Label
  10
384.58
  20
311.88
  0
VERTEX
  8
MMIC_Label
  10
382.6
  20
311.55
  0
VERTEX
  8
MMIC_Label
  10
380.95
  20
311.88
  0
VERTEX
  8
MMIC_Label
  10
379.3
  20
312.54
  0
VERTEX
  8
MMIC_Label
  10
377.98
  20
313.53
  0
VERTEX
  8
MMIC_Label
  10
376.66
  20
315.18
  0
VERTEX
  8
MMIC_Label
  10
376
  20
316.83
  0
VERTEX
  8
MMIC_Label
  10
375.34
  20
318.81
  0
VERTEX
  8
MMIC_Label
  10
375.01
  20
320.79
  0
VERTEX
  8
MMIC_Label
  10
375.01
  20
325.41
  0
VERTEX
  8
MMIC_Label
  10
375.34
  20
327.39
  0
VERTEX
  8
MMIC_Label
  10
376
  20
329.37
  0
VERTEX
  8
MMIC_Label
  10
376.66
  20
331.02
  0
VERTEX
  8
MMIC_Label
  10
377.98
  20
332.67
  0
VERTEX
  8
MMIC_Label
  10
379.3
  20
333.66
  0
VERTEX
  8
MMIC_Label
  10
380.95
  20
334.32
  0
VERTEX
  8
MMIC_Label
  10
382.6
  20
334.65
  0
VERTEX
  8
MMIC_Label
  10
384.58
  20
334.32
  0
VERTEX
  8
MMIC_Label
  10
386.23
  20
333.33
  0
VERTEX
  8
MMIC_Label
  10
387.55
  20
332.34
  0
VERTEX
  8
MMIC_Label
  10
388.54
  20
330.69
  0
VERTEX
  8
MMIC_Label
  10
389.2
  20
329.04
  0
SEQEND
  0
POLYLINE
  8
MMIC_Label
  70
1
  66
1
  0
VERTEX
  8
MMIC_Label
  10
402.86
  20
306.6
  0
VERTEX
  8
MMIC_Label
  10
402.86
  20
311.55
  0
VERTEX
  8
MMIC_Label
  10
410.12
  20
311.55
  0
VERTEX
  8
MMIC_Label
  10
410.12
  20
328.71
  0
VERTEX
  8
MMIC_Label
  10
401.21
  20
328.71
  0
VERTEX
  8
MMIC_Label
  10
401.21
  20
333
  0
VERTEX
  8
MMIC_Label
  10
402.86
  20
333
  0
VERTEX
  8
MMIC_Label
  10
404.84
  20
333.33
  0
VERTEX
  8
MMIC_Label
  10
406.82
  20
333.99
  0
VERTEX
  8
MMIC_Label
  10
408.47
  20
334.65
  0
VERTEX
  8
MMIC_Label
  10
409.79
  20
335.97
  0
VERTEX
  8
MMIC_Label
  10
410.78
  20
337.62
  0
VERTEX
  8
MMIC_Label
  10
411.11
  20
339.6
  0
VERTEX
  8
MMIC_Label
  10
416.72
  20
339.6
  0
VERTEX
  8
MMIC_Label
  10
416.72
  20
311.55
  0
VERTEX
  8
MMIC_Label
  10
423.98
  20
311.55
  0
VERTEX
  8
MMIC_Label
  10
423.98
  20
306.6
  0
SEQEND
  0
POLYLINE
  8
MMIC_Label
  70
1
  66
1
  0
VERTEX
  8
MMIC_Label
  10
234.19
  20
258.6
  0
VERTEX
  8
MMIC_Label
  10
244.09
  20
291.6
  0
VERTEX
  8
MMIC_Label
  10
251.68
  20
291.6
  0
VERTEX
  8
MMIC_Label
  10
261.58
  20
258.6
  0
VERTEX
  8
MMIC_Label
  10
254.65
  20
258.6
  0
VERTEX
  8
MMIC_Label
  10
253
  20
265.2
  0
VERTEX
  8
MMIC_Label
  10
243.1
  20
265.2
  0
VERTEX
  8
MMIC_Label
  10
241.45
  20
258.6
  0
SEQEND
  0
POLYLINE
  8
MMIC_Label
  70
1
  66
1
  0
VERTEX
  8
MMIC_Label
  10
398.19
  20
258.6
  0
VERTEX
  8
MMIC_Label
  10
408.09
  20
275.1
  0
VERTEX
  8
MMIC_Label
  10
398.19
  20
291.6
  0
VERTEX
  8
MMIC_Label
  10
405.45
  20
291.6
  0
VERTEX
  8
MMIC_Label
  10
412.05
  20
280.71
  0
VERTEX
  8
MMIC_Label
  10
418.65
  20
291.6
  0
VERTEX
  8
MMIC_Label
  10
425.58
  20
291.6
  0
VERTEX
  8
MMIC_Label
  10
415.68
  20
275.1
  0
VERTEX
  8
MMIC_Label
  10
425.58
  20
258.6
  0
VERTEX
  8
MMIC_Label
  10
418.65
  20
258.6
  0
VERTEX
  8
MMIC_Label
  10
412.05
  20
269.49
  0
VERTEX
  8
MMIC_Label
  10
405.45
  20
258.6
  0
SEQEND
  0
POLYLINE
  8
MMIC_Label
  70
1
  66
1
  0
VERTEX
  8
MMIC_Label
  10
-412.861
  20
249.69
  0
VERTEX
  8
MMIC_Label
  10
-417.04
  20
257.326
  0
VERTEX
  8
MMIC_Label
  10
-413.157
  20
264.119
  0
VERTEX
  8
MMIC_Label
  10
-415.432
  20
264.119
  0
VERTEX
  8
MMIC_Label
  10
-417.325
  20
260.709
  0
VERTEX
  8
MMIC_Label
  10
-417.717
  20
260.016
  0
VERTEX
  8
MMIC_Label
  10
-418.182
  20
259.119
  0
VERTEX
  8
MMIC_Label
  10
-418.479
  20
259.772
  0
VERTEX
  8
MMIC_Label
  10
-418.965
  20
260.736
  0
VERTEX
  8
MMIC_Label
  10
-420.69
  20
264.119
  0
VERTEX
  8
MMIC_Label
  10
-423.07
  20
264.119
  0
VERTEX
  8
MMIC_Label
  10
-419.272
  20
257.19
  0
VERTEX
  8
MMIC_Label
  10
-423.377
  20
249.69
  0
VERTEX
  8
MMIC_Label
  10
-421.071
  20
249.69
  0
VERTEX
  8
MMIC_Label
  10
-418.119
  20
255.383
  0
VERTEX
  8
MMIC_Label
  10
-417.505
  20
254.174
  0
VERTEX
  8
MMIC_Label
  10
-415.199
  20
249.69
  0
SEQEND
  0
POLYLINE
  8
MMIC_Label
  70
1
  66
1
  0
VERTEX
  8
MMIC_Label
  10
430.99
  20
258.6
  0
VERTEX
  8
MMIC_Label
  10
440.89
  20
275.1
  0
VERTEX
  8
MMIC_Label
  10
430.99
  20
291.6
  0
VERTEX
  8
MMIC_Label
  10
438.25
  20
291.6
  0
VERTEX
  8
MMIC_Label
  10
444.85
  20
280.71
  0
VERTEX
  8
MMIC_Label
  10
451.45
  20
291.6
  0
VERTEX
  8
MMIC_Label
  10
458.38
  20
291.6
  0
VERTEX
  8
MMIC_Label
  10
448.48
  20
275.1
  0
VERTEX
  8
MMIC_Label
  10
458.38
  20
258.6
  0
VERTEX
  8
MMIC_Label
  10
451.45
  20
258.6
  0
VERTEX
  8
MMIC_Label
  10
444.85
  20
269.49
  0
VERTEX
  8
MMIC_Label
  10
438.25
  20
258.6
  0
SEQEND
  0
POLYLINE
  8
MMIC_Label
  70
1
  66
1
  0
VERTEX
  8
MMIC_Label
  10
365.39
  20
258.6
  0
VERTEX
  8
MMIC_Label
  10
365.39
  20
291.6
  0
VERTEX
  8
MMIC_Label
  10
371.99
  20
291.6
  0
VERTEX
  8
MMIC_Label
  10
386.84
  20
268.5
  0
VERTEX
  8
MMIC_Label
  10
386.84
  20
291.6
  0
VERTEX
  8
MMIC_Label
  10
392.78
  20
291.6
  0
VERTEX
  8
MMIC_Label
  10
392.78
  20
258.6
  0
VERTEX
  8
MMIC_Label
  10
386.84
  20
258.6
  0
VERTEX
  8
MMIC_Label
  10
371.33
  20
281.7
  0
VERTEX
  8
MMIC_Label
  10
371.33
  20
258.6
  0
SEQEND
  0
POLYLINE
  8
MMIC_Label
  70
1
  66
1
  0
VERTEX
  8
MMIC_Label
  10
-404.528
  20
269.79
  0
VERTEX
  8
MMIC_Label
  10
-405.924
  20
269.79
  0
VERTEX
  8
MMIC_Label
  10
-406.44
  20
268.451
  0
VERTEX
  8
MMIC_Label
  10
-407.623
  20
267.093
  0
VERTEX
  8
MMIC_Label
  10
-408.809
  20
265.732
  0
VERTEX
  8
MMIC_Label
  10
-410.441
  20
264.746
  0
VERTEX
  8
MMIC_Label
  10
-410.441
  20
262.222
  0
VERTEX
  8
MMIC_Label
  10
-410.417
  20
262.206
  0
VERTEX
  8
MMIC_Label
  10
-410.392
  20
262.191
  0
VERTEX
  8
MMIC_Label
  10
-409.401
  20
262.661
  0
VERTEX
  8
MMIC_Label
  10
-408.276
  20
263.509
  0
VERTEX
  8
MMIC_Label
  10
-407.15
  20
264.359
  0
VERTEX
  8
MMIC_Label
  10
-406.632
  20
264.993
  0
VERTEX
  8
MMIC_Label
  10
-406.632
  20
249.59
  0
VERTEX
  8
MMIC_Label
  10
-404.528
  20
249.59
  0
SEQEND
  0
POLYLINE
  8
MMIC_Label
  70
1
  66
1
  0
VERTEX
  8
MMIC_Label
  10
-445.6
  20
280.2
  0
VERTEX
  8
MMIC_Label
  10
-460.6
  20
280.2
  0
VERTEX
  8
MMIC_Label
  10
-460.6
  20
275.2
  0
VERTEX
  8
MMIC_Label
  10
-445.6
  20
275.2
  0
SEQEND
  0
POLYLINE
  8
MMIC_Label
  70
1
  66
1
  0
VERTEX
  8
MMIC_Label
  10
343.15
  20
258.6
  0
VERTEX
  8
MMIC_Label
  10
343.15
  20
285.99
  0
VERTEX
  8
MMIC_Label
  10
332.59
  20
285.99
  0
VERTEX
  8
MMIC_Label
  10
332.59
  20
291.6
  0
VERTEX
  8
MMIC_Label
  10
359.98
  20
291.6
  0
VERTEX
  8
MMIC_Label
  10
359.98
  20
285.99
  0
VERTEX
  8
MMIC_Label
  10
349.75
  20
285.99
  0
VERTEX
  8
MMIC_Label
  10
349.75
  20
258.6
  0
SEQEND
  0
POLYLINE
  8
MMIC_Label
  70
1
  66
1
  0
VERTEX
  8
MMIC_Label
  10
-419.272
  20
257.19
  0
VERTEX
  8
MMIC_Label
  10
-423.07
  20
264.119
  0
VERTEX
  8
MMIC_Label
  10
-420.69
  20
264.119
  0
VERTEX
  8
MMIC_Label
  10
-418.965
  20
260.736
  0
VERTEX
  8
MMIC_Label
  10
-418.479
  20
259.772
  0
VERTEX
  8
MMIC_Label
  10
-418.182
  20
259.119
  0
VERTEX
  8
MMIC_Label
  10
-417.717
  20
260.016
  0
VERTEX
  8
MMIC_Label
  10
-417.325
  20
260.709
  0
VERTEX
  8
MMIC_Label
  10
-415.432
  20
264.119
  0
VERTEX
  8
MMIC_Label
  10
-413.157
  20
264.119
  0
VERTEX
  8
MMIC_Label
  10
-417.04
  20
257.326
  0
VERTEX
  8
MMIC_Label
  10
-412.861
  20
249.69
  0
VERTEX
  8
MMIC_Label
  10
-415.199
  20
249.69
  0
VERTEX
  8
MMIC_Label
  10
-417.505
  20
254.174
  0
VERTEX
  8
MMIC_Label
  10
-418.119
  20
255.383
  0
VERTEX
  8
MMIC_Label
  10
-421.071
  20
249.69
  0
VERTEX
  8
MMIC_Label
  10
-423.377
  20
249.69
  0
SEQEND
  0
POLYLINE
  8
MMIC_Label
  70
1
  66
1
  0
VERTEX
  8
MMIC_Label
  10
234.19
  20
258.6
  0
VERTEX
  8
MMIC_Label
  10
244.09
  20
291.6
  0
VERTEX
  8
MMIC_Label
  10
251.68
  20
291.6
  0
VERTEX
  8
MMIC_Label
  10
261.58
  20
258.6
  0
VERTEX
  8
MMIC_Label
  10
254.65
  20
258.6
  0
VERTEX
  8
MMIC_Label
  10
253
  20
265.2
  0
VERTEX
  8
MMIC_Label
  10
243.1
  20
265.2
  0
VERTEX
  8
MMIC_Label
  10
241.45
  20
258.6
  0
SEQEND
  0
POLYLINE
  8
MMIC_Label
  70
1
  66
1
  0
VERTEX
  8
MMIC_Label
  10
299.79
  20
258.6
  0
VERTEX
  8
MMIC_Label
  10
309.69
  20
291.6
  0
VERTEX
  8
MMIC_Label
  10
317.28
  20
291.6
  0
VERTEX
  8
MMIC_Label
  10
327.18
  20
258.6
  0
VERTEX
  8
MMIC_Label
  10
320.25
  20
258.6
  0
VERTEX
  8
MMIC_Label
  10
318.6
  20
265.2
  0
VERTEX
  8
MMIC_Label
  10
308.7
  20
265.2
  0
VERTEX
  8
MMIC_Label
  10
307.05
  20
258.6
  0
SEQEND
  0
POLYLINE
  8
MMIC_Label
  70
1
  66
1
  0
VERTEX
  8
MMIC_Label
  10
335.61
  20
306.6
  0
VERTEX
  8
MMIC_Label
  10
345.51
  20
339.6
  0
VERTEX
  8
MMIC_Label
  10
353.1
  20
339.6
  0
VERTEX
  8
MMIC_Label
  10
363
  20
306.6
  0
VERTEX
  8
MMIC_Label
  10
356.07
  20
306.6
  0
VERTEX
  8
MMIC_Label
  10
354.42
  20
313.2
  0
VERTEX
  8
MMIC_Label
  10
344.52
  20
313.2
  0
VERTEX
  8
MMIC_Label
  10
342.87
  20
306.6
  0
SEQEND
  0
POLYLINE
  8
MMIC_Label
  70
1
  66
1
  0
VERTEX
  8
MMIC_Label
  10
-352
  20
249.69
  0
VERTEX
  8
MMIC_Label
  10
-356.179
  20
257.326
  0
VERTEX
  8
MMIC_Label
  10
-352.296
  20
264.119
  0
VERTEX
  8
MMIC_Label
  10
-355.121
  20
264.119
  0
VERTEX
  8
MMIC_Label
  10
-357.014
  20
260.709
  0
VERTEX
  8
MMIC_Label
  10
-357.406
  20
260.016
  0
VERTEX
  8
MMIC_Label
  10
-357.871
  20
259.119
  0
VERTEX
  8
MMIC_Label
  10
-358.168
  20
259.772
  0
VERTEX
  8
MMIC_Label
  10
-358.654
  20
260.736
  0
VERTEX
  8
MMIC_Label
  10
-360.379
  20
264.119
  0
VERTEX
  8
MMIC_Label
  10
-363.309
  20
264.119
  0
VERTEX
  8
MMIC_Label
  10
-359.511
  20
257.19
  0
VERTEX
  8
MMIC_Label
  10
-363.616
  20
249.69
  0
VERTEX
  8
MMIC_Label
  10
-360.76
  20
249.69
  0
VERTEX
  8
MMIC_Label
  10
-357.808
  20
255.383
  0
VERTEX
  8
MMIC_Label
  10
-357.194
  20
254.174
  0
VERTEX
  8
MMIC_Label
  10
-354.888
  20
249.69
  0
SEQEND
  0
POLYLINE
  8
MMIC_Label
  70
1
  66
1
  0
VERTEX
  8
MMIC_Label
  10
450.46
  20
317.16
  0
VERTEX
  8
MMIC_Label
  10
450.13
  20
315.18
  0
VERTEX
  8
MMIC_Label
  10
449.47
  20
313.86
  0
VERTEX
  8
MMIC_Label
  10
448.48
  20
312.54
  0
VERTEX
  8
MMIC_Label
  10
447.49
  20
311.88
  0
VERTEX
  8
MMIC_Label
  10
445.84
  20
311.22
  0
VERTEX
  8
MMIC_Label
  10
444.52
  20
310.89
  0
VERTEX
  8
MMIC_Label
  10
442.87
  20
310.89
  0
VERTEX
  8
MMIC_Label
  10
441.22
  20
311.22
  0
VERTEX
  8
MMIC_Label
  10
438.58
  20
312.54
  0
VERTEX
  8
MMIC_Label
  10
437.59
  20
313.86
  0
VERTEX
  8
MMIC_Label
  10
436.93
  20
315.18
  0
VERTEX
  8
MMIC_Label
  10
436.6
  20
317.16
  0
VERTEX
  8
MMIC_Label
  10
436.93
  20
318.81
  0
VERTEX
  8
MMIC_Label
  10
437.59
  20
320.13
  0
VERTEX
  8
MMIC_Label
  10
438.58
  20
321.45
  0
VERTEX
  8
MMIC_Label
  10
441.22
  20
322.77
  0
VERTEX
  8
MMIC_Label
  10
442.87
  20
323.1
  0
VERTEX
  8
MMIC_Label
  10
444.52
  20
323.1
  0
VERTEX
  8
MMIC_Label
  10
445.84
  20
322.77
  0
VERTEX
  8
MMIC_Label
  10
447.49
  20
322.11
  0
VERTEX
  8
MMIC_Label
  10
448.48
  20
321.45
  0
VERTEX
  8
MMIC_Label
  10
449.47
  20
320.13
  0
VERTEX
  8
MMIC_Label
  10
450.13
  20
318.81
  0
SEQEND
  0
POLYLINE
  8
MMIC_Label
  70
1
  66
1
  0
VERTEX
  8
MMIC_Label
  10
-460.6
  20
275.2
  0
VERTEX
  8
MMIC_Label
  10
-460.5
  20
275.2
  0
VERTEX
  8
MMIC_Label
  10
-460.5
  20
275.3
  0
VERTEX
  8
MMIC_Label
  10
-460.6
  20
275.3
  0
SEQEND
  0
POLYLINE
  8
MMIC_Label
  70
1
  66
1
  0
VERTEX
  8
MMIC_Label
  10
343.15
  20
258.6
  0
VERTEX
  8
MMIC_Label
  10
343.15
  20
285.99
  0
VERTEX
  8
MMIC_Label
  10
332.59
  20
285.99
  0
VERTEX
  8
MMIC_Label
  10
332.59
  20
291.6
  0
VERTEX
  8
MMIC_Label
  10
359.98
  20
291.6
  0
VERTEX
  8
MMIC_Label
  10
359.98
  20
285.99
  0
VERTEX
  8
MMIC_Label
  10
349.75
  20
285.99
  0
VERTEX
  8
MMIC_Label
  10
349.75
  20
258.6
  0
SEQEND
  0
POLYLINE
  8
MMIC_Label
  70
1
  66
1
  0
VERTEX
  8
MMIC_Label
  10
335.61
  20
306.6
  0
VERTEX
  8
MMIC_Label
  10
345.51
  20
339.6
  0
VERTEX
  8
MMIC_Label
  10
353.1
  20
339.6
  0
VERTEX
  8
MMIC_Label
  10
363
  20
306.6
  0
VERTEX
  8
MMIC_Label
  10
356.07
  20
306.6
  0
VERTEX
  8
MMIC_Label
  10
354.42
  20
313.2
  0
VERTEX
  8
MMIC_Label
  10
344.52
  20
313.2
  0
VERTEX
  8
MMIC_Label
  10
342.87
  20
306.6
  0
SEQEND
  0
POLYLINE
  8
MMIC_Label
  70
1
  66
1
  0
VERTEX
  8
MMIC_Label
  10
345.51
  20
318.15
  0
VERTEX
  8
MMIC_Label
  10
349.47
  20
332.34
  0
VERTEX
  8
MMIC_Label
  10
353.1
  20
318.15
  0
SEQEND
  0
POLYLINE
  8
MMIC_Label
  70
1
  66
1
  0
VERTEX
  8
MMIC_Label
  10
450.46
  20
317.16
  0
VERTEX
  8
MMIC_Label
  10
450.13
  20
315.18
  0
VERTEX
  8
MMIC_Label
  10
449.47
  20
313.86
  0
VERTEX
  8
MMIC_Label
  10
448.48
  20
312.54
  0
VERTEX
  8
MMIC_Label
  10
447.49
  20
311.88
  0
VERTEX
  8
MMIC_Label
  10
445.84
  20
311.22
  0
VERTEX
  8
MMIC_Label
  10
444.52
  20
310.89
  0
VERTEX
  8
MMIC_Label
  10
442.87
  20
310.89
  0
VERTEX
  8
MMIC_Label
  10
441.22
  20
311.22
  0
VERTEX
  8
MMIC_Label
  10
438.58
  20
312.54
  0
VERTEX
  8
MMIC_Label
  10
437.59
  20
313.86
  0
VERTEX
  8
MMIC_Label
  10
436.93
  20
315.18
  0
VERTEX
  8
MMIC_Label
  10
436.6
  20
317.16
  0
VERTEX
  8
MMIC_Label
  10
436.93
  20
318.81
  0
VERTEX
  8
MMIC_Label
  10
437.59
  20
320.13
  0
VERTEX
  8
MMIC_Label
  10
438.58
  20
321.45
  0
VERTEX
  8
MMIC_Label
  10
441.22
  20
322.77
  0
VERTEX
  8
MMIC_Label
  10
442.87
  20
323.1
  0
VERTEX
  8
MMIC_Label
  10
444.52
  20
323.1
  0
VERTEX
  8
MMIC_Label
  10
445.84
  20
322.77
  0
VERTEX
  8
MMIC_Label
  10
447.49
  20
322.11
  0
VERTEX
  8
MMIC_Label
  10
448.48
  20
321.45
  0
VERTEX
  8
MMIC_Label
  10
449.47
  20
320.13
  0
VERTEX
  8
MMIC_Label
  10
450.13
  20
318.81
  0
SEQEND
  0
POLYLINE
  8
MMIC_Label
  70
1
  66
1
  0
VERTEX
  8
MMIC_Label
  10
-210.406
  20
294.612
  0
VERTEX
  8
MMIC_Label
  10
-210.409
  20
294.602
  0
VERTEX
  8
MMIC_Label
  10
-210.413
  20
294.591
  0
VERTEX
  8
MMIC_Label
  10
-210.418
  20
294.581
  0
VERTEX
  8
MMIC_Label
  10
-210.423
  20
294.571
  0
VERTEX
  8
MMIC_Label
  10
-210.438
  20
294.554
  0
VERTEX
  8
MMIC_Label
  10
-210.446
  20
294.546
  0
VERTEX
  8
MMIC_Label
  10
-210.455
  20
294.539
  0
VERTEX
  8
MMIC_Label
  10
-210.465
  20
294.534
  0
VERTEX
  8
MMIC_Label
  10
-210.474
  20
294.529
  0
VERTEX
  8
MMIC_Label
  10
-210.486
  20
294.526
  0
VERTEX
  8
MMIC_Label
  10
-210.496
  20
294.522
  0
VERTEX
  8
MMIC_Label
  10
-210.507
  20
294.521
  0
VERTEX
  8
MMIC_Label
  10
-210.518
  20
294.521
  0
VERTEX
  8
MMIC_Label
  10
-232.113
  20
294.597
  0
VERTEX
  8
MMIC_Label
  10
-232.28
  20
294.59
  0
VERTEX
  8
MMIC_Label
  10
-232.446
  20
294.567
  0
VERTEX
  8
MMIC_Label
  10
-232.61
  20
294.529
  0
VERTEX
  8
MMIC_Label
  10
-232.77
  20
294.475
  0
VERTEX
  8
MMIC_Label
  10
-232.922
  20
294.408
  0
VERTEX
  8
MMIC_Label
  10
-233.07
  20
294.326
  0
VERTEX
  8
MMIC_Label
  10
-233.207
  20
294.23
  0
VERTEX
  8
MMIC_Label
  10
-233.336
  20
294.123
  0
VERTEX
  8
MMIC_Label
  10
-233.454
  20
294.004
  0
VERTEX
  8
MMIC_Label
  10
-238.798
  20
288.09
  0
VERTEX
  8
MMIC_Label
  10
-242.096
  20
284.438
  0
VERTEX
  8
MMIC_Label
  10
-242.21
  20
284.299
  0
VERTEX
  8
MMIC_Label
  10
-242.31
  20
284.149
  0
VERTEX
  8
MMIC_Label
  10
-242.394
  20
283.989
  0
VERTEX
  8
MMIC_Label
  10
-242.462
  20
283.822
  0
VERTEX
  8
MMIC_Label
  10
-242.512
  20
283.649
  0
VERTEX
  8
MMIC_Label
  10
-242.545
  20
283.471
  0
VERTEX
  8
MMIC_Label
  10
-242.56
  20
283.291
  0
VERTEX
  8
MMIC_Label
  10
-242.557
  20
283.111
  0
VERTEX
  8
MMIC_Label
  10
-242.535
  20
282.932
  0
VERTEX
  8
MMIC_Label
  10
-242.497
  20
282.756
  0
VERTEX
  8
MMIC_Label
  10
-242.44
  20
282.585
  0
VERTEX
  8
MMIC_Label
  10
-242.367
  20
282.42
  0
VERTEX
  8
MMIC_Label
  10
-242.278
  20
282.263
  0
VERTEX
  8
MMIC_Label
  10
-242.173
  20
282.116
  0
VERTEX
  8
MMIC_Label
  10
-242.054
  20
281.981
  0
VERTEX
  8
MMIC_Label
  10
-241.922
  20
281.858
  0
VERTEX
  8
MMIC_Label
  10
-241.779
  20
281.748
  0
VERTEX
  8
MMIC_Label
  10
-241.626
  20
281.654
  0
VERTEX
  8
MMIC_Label
  10
-241.463
  20
281.574
  0
VERTEX
  8
MMIC_Label
  10
-241.294
  20
281.513
  0
VERTEX
  8
MMIC_Label
  10
-241.119
  20
281.468
  0
VERTEX
  8
MMIC_Label
  10
-240.941
  20
281.441
  0
VERTEX
  8
MMIC_Label
  10
-240.761
  20
281.432
  0
VERTEX
  8
MMIC_Label
  10
-187.262
  20
281.432
  0
VERTEX
  8
MMIC_Label
  10
-187.087
  20
281.441
  0
VERTEX
  8
MMIC_Label
  10
-186.914
  20
281.466
  0
VERTEX
  8
MMIC_Label
  10
-186.743
  20
281.508
  0
VERTEX
  8
MMIC_Label
  10
-186.578
  20
281.567
  0
VERTEX
  8
MMIC_Label
  10
-186.419
  20
281.642
  0
VERTEX
  8
MMIC_Label
  10
-186.269
  20
281.731
  0
VERTEX
  8
MMIC_Label
  10
-186.127
  20
281.834
  0
VERTEX
  8
MMIC_Label
  10
-185.997
  20
281.952
  0
VERTEX
  8
MMIC_Label
  10
-185.878
  20
282.081
  0
VERTEX
  8
MMIC_Label
  10
-185.773
  20
282.221
  0
VERTEX
  8
MMIC_Label
  10
-185.682
  20
282.37
  0
VERTEX
  8
MMIC_Label
  10
-185.606
  20
282.529
  0
VERTEX
  8
MMIC_Label
  10
-185.545
  20
282.693
  0
VERTEX
  8
MMIC_Label
  10
-185.501
  20
282.862
  0
VERTEX
  8
MMIC_Label
  10
-185.473
  20
283.036
  0
VERTEX
  8
MMIC_Label
  10
-185.462
  20
283.21
  0
VERTEX
  8
MMIC_Label
  10
-185.469
  20
283.386
  0
VERTEX
  8
MMIC_Label
  10
-185.492
  20
283.56
  0
VERTEX
  8
MMIC_Label
  10
-185.533
  20
283.73
  0
VERTEX
  8
MMIC_Label
  10
-185.59
  20
283.896
  0
VERTEX
  8
MMIC_Label
  10
-185.662
  20
284.056
  0
VERTEX
  8
MMIC_Label
  10
-206.67
  20
324.87
  0
VERTEX
  8
MMIC_Label
  10
-207.55
  20
326.63
  0
VERTEX
  8
MMIC_Label
  10
-208.43
  20
328.229
  0
VERTEX
  8
MMIC_Label
  10
-209.146
  20
329.586
  0
VERTEX
  8
MMIC_Label
  10
-210.184
  20
330.942
  0
VERTEX
  8
MMIC_Label
  10
-210.981
  20
331.898
  0
VERTEX
  8
MMIC_Label
  10
-211.775
  20
332.693
  0
VERTEX
  8
MMIC_Label
  10
-212.332
  20
333.09
  0
VERTEX
  8
MMIC_Label
  10
-213.207
  20
333.646
  0
VERTEX
  8
MMIC_Label
  10
-213.918
  20
333.964
  0
VERTEX
  8
MMIC_Label
  10
-214.796
  20
334.202
  0
VERTEX
  8
MMIC_Label
  10
-215.59
  20
334.441
  0
VERTEX
  8
MMIC_Label
  10
-216.545
  20
334.52
  0
VERTEX
  8
MMIC_Label
  10
-217.9
  20
334.6
  0
VERTEX
  8
MMIC_Label
  10
-219.256
  20
334.52
  0
VERTEX
  8
MMIC_Label
  10
-220.29
  20
334.44
  0
VERTEX
  8
MMIC_Label
  10
-220.925
  20
334.282
  0
VERTEX
  8
MMIC_Label
  10
-221.802
  20
334.042
  0
VERTEX
  8
MMIC_Label
  10
-223.234
  20
333.486
  0
VERTEX
  8
MMIC_Label
  10
-224.35
  20
332.77
  0
VERTEX
  8
MMIC_Label
  10
-225.947
  20
331.73
  0
VERTEX
  8
MMIC_Label
  10
-227.382
  20
330.613
  0
VERTEX
  8
MMIC_Label
  10
-228.66
  20
329.417
  0
VERTEX
  8
MMIC_Label
  10
-230.019
  20
327.898
  0
VERTEX
  8
MMIC_Label
  10
-252.776
  20
302.068
  0
VERTEX
  8
MMIC_Label
  10
-259.044
  20
294.954
  0
VERTEX
  8
MMIC_Label
  10
-259.044
  20
294.746
  0
VERTEX
  8
MMIC_Label
  10
-258.009
  20
292.118
  0
VERTEX
  8
MMIC_Label
  10
-256.73
  20
289.482
  0
VERTEX
  8
MMIC_Label
  10
-255.291
  20
286.925
  0
VERTEX
  8
MMIC_Label
  10
-253.934
  20
284.766
  0
VERTEX
  8
MMIC_Label
  10
-253.894
  20
284.711
  0
VERTEX
  8
MMIC_Label
  10
-253.721
  20
284.506
  0
VERTEX
  8
MMIC_Label
  10
-253.529
  20
284.318
  0
VERTEX
  8
MMIC_Label
  10
-253.318
  20
284.15
  0
VERTEX
  8
MMIC_Label
  10
-253.093
  20
284.003
  0
VERTEX
  8
MMIC_Label
  10
-252.854
  20
283.879
  0
VERTEX
  8
MMIC_Label
  10
-252.604
  20
283.78
  0
VERTEX
  8
MMIC_Label
  10
-252.346
  20
283.705
  0
VERTEX
  8
MMIC_Label
  10
-252.082
  20
283.655
  0
VERTEX
  8
MMIC_Label
  10
-251.814
  20
283.633
  0
VERTEX
  8
MMIC_Label
  10
-251.545
  20
283.636
  0
VERTEX
  8
MMIC_Label
  10
-251.278
  20
283.666
  0
VERTEX
  8
MMIC_Label
  10
-251.014
  20
283.722
  0
VERTEX
  8
MMIC_Label
  10
-250.758
  20
283.802
  0
VERTEX
  8
MMIC_Label
  10
-250.51
  20
283.909
  0
VERTEX
  8
MMIC_Label
  10
-250.275
  20
284.038
  0
VERTEX
  8
MMIC_Label
  10
-250.053
  20
284.19
  0
VERTEX
  8
MMIC_Label
  10
-249.847
  20
284.364
  0
VERTEX
  8
MMIC_Label
  10
-249.659
  20
284.557
  0
VERTEX
  8
MMIC_Label
  10
-242.906
  20
292.198
  0
VERTEX
  8
MMIC_Label
  10
-221.6
  20
316.309
  0
VERTEX
  8
MMIC_Label
  10
-221.583
  20
316.326
  0
VERTEX
  8
MMIC_Label
  10
-221.566
  20
316.341
  0
VERTEX
  8
MMIC_Label
  10
-221.547
  20
316.354
  0
VERTEX
  8
MMIC_Label
  10
-221.527
  20
316.366
  0
VERTEX
  8
MMIC_Label
  10
-221.506
  20
316.375
  0
VERTEX
  8
MMIC_Label
  10
-221.484
  20
316.382
  0
VERTEX
  8
MMIC_Label
  10
-221.462
  20
316.388
  0
VERTEX
  8
MMIC_Label
  10
-221.439
  20
316.391
  0
VERTEX
  8
MMIC_Label
  10
-221.416
  20
316.392
  0
VERTEX
  8
MMIC_Label
  10
-221.398
  20
316.391
  0
VERTEX
  8
MMIC_Label
  10
-221.38
  20
316.388
  0
VERTEX
  8
MMIC_Label
  10
-221.363
  20
316.384
  0
VERTEX
  8
MMIC_Label
  10
-221.346
  20
316.378
  0
VERTEX
  8
MMIC_Label
  10
-221.33
  20
316.37
  0
VERTEX
  8
MMIC_Label
  10
-221.314
  20
316.361
  0
VERTEX
  8
MMIC_Label
  10
-221.3
  20
316.35
  0
VERTEX
  8
MMIC_Label
  10
-221.287
  20
316.337
  0
VERTEX
  8
MMIC_Label
  10
-221.275
  20
316.323
  0
VERTEX
  8
MMIC_Label
  10
-221.265
  20
316.309
  0
VERTEX
  8
MMIC_Label
  10
-221.256
  20
316.294
  0
VERTEX
  8
MMIC_Label
  10
-210.404
  20
294.749
  0
VERTEX
  8
MMIC_Label
  10
-210.404
  20
294.634
  0
VERTEX
  8
MMIC_Label
  10
-210.405
  20
294.623
  0
SEQEND
  0
POLYLINE
  8
MMIC_Label
  70
1
  66
1
  0
VERTEX
  8
MMIC_Label
  10
-298.728
  20
249.69
  0
VERTEX
  8
MMIC_Label
  10
-302.907
  20
257.326
  0
VERTEX
  8
MMIC_Label
  10
-299.024
  20
264.119
  0
VERTEX
  8
MMIC_Label
  10
-301.849
  20
264.119
  0
VERTEX
  8
MMIC_Label
  10
-303.742
  20
260.709
  0
VERTEX
  8
MMIC_Label
  10
-304.134
  20
260.016
  0
VERTEX
  8
MMIC_Label
  10
-304.599
  20
259.119
  0
VERTEX
  8
MMIC_Label
  10
-304.896
  20
259.772
  0
VERTEX
  8
MMIC_Label
  10
-305.382
  20
260.736
  0
VERTEX
  8
MMIC_Label
  10
-307.107
  20
264.119
  0
VERTEX
  8
MMIC_Label
  10
-310.037
  20
264.119
  0
VERTEX
  8
MMIC_Label
  10
-306.239
  20
257.19
  0
VERTEX
  8
MMIC_Label
  10
-310.344
  20
249.69
  0
VERTEX
  8
MMIC_Label
  10
-307.488
  20
249.69
  0
VERTEX
  8
MMIC_Label
  10
-304.536
  20
255.383
  0
VERTEX
  8
MMIC_Label
  10
-303.922
  20
254.174
  0
VERTEX
  8
MMIC_Label
  10
-301.616
  20
249.69
  0
SEQEND
  0
POLYLINE
  8
MMIC_Label
  70
1
  66
1
  0
VERTEX
  8
MMIC_Label
  10
309.69
  20
270.15
  0
VERTEX
  8
MMIC_Label
  10
313.65
  20
284.34
  0
VERTEX
  8
MMIC_Label
  10
317.28
  20
270.15
  0
SEQEND
  0
POLYLINE
  8
MMIC_Label
  70
1
  66
1
  0
VERTEX
  8
MMIC_Label
  10
345.51
  20
318.15
  0
VERTEX
  8
MMIC_Label
  10
349.47
  20
332.34
  0
VERTEX
  8
MMIC_Label
  10
353.1
  20
318.15
  0
SEQEND
  0
POLYLINE
  8
MMIC_Label
  70
1
  66
1
  0
VERTEX
  8
MMIC_Label
  10
309.69
  20
270.15
  0
VERTEX
  8
MMIC_Label
  10
313.65
  20
284.34
  0
VERTEX
  8
MMIC_Label
  10
317.28
  20
270.15
  0
SEQEND
  0
POLYLINE
  8
MMIC_Via
  70
1
  66
1
  0
VERTEX
  8
MMIC_Via
  10
-433.6
  20
201.3
  0
VERTEX
  8
MMIC_Via
  10
-433.528
  20
199.83
  0
VERTEX
  8
MMIC_Via
  10
-433.312
  20
198.374
  0
VERTEX
  8
MMIC_Via
  10
-432.954
  20
196.946
  0
VERTEX
  8
MMIC_Via
  10
-432.458
  20
195.56
  0
VERTEX
  8
MMIC_Via
  10
-431.829
  20
194.229
  0
VERTEX
  8
MMIC_Via
  10
-431.072
  20
192.966
  0
VERTEX
  8
MMIC_Via
  10
-430.195
  20
191.784
  0
VERTEX
  8
MMIC_Via
  10
-429.207
  20
190.693
  0
VERTEX
  8
MMIC_Via
  10
-428.116
  20
189.705
  0
VERTEX
  8
MMIC_Via
  10
-426.934
  20
188.828
  0
VERTEX
  8
MMIC_Via
  10
-425.671
  20
188.071
  0
VERTEX
  8
MMIC_Via
  10
-424.34
  20
187.442
  0
VERTEX
  8
MMIC_Via
  10
-422.954
  20
186.946
  0
VERTEX
  8
MMIC_Via
  10
-421.526
  20
186.588
  0
VERTEX
  8
MMIC_Via
  10
-420.07
  20
186.372
  0
VERTEX
  8
MMIC_Via
  10
-418.6
  20
186.3
  0
VERTEX
  8
MMIC_Via
  10
-388.6
  20
186.3
  0
VERTEX
  8
MMIC_Via
  10
-387.13
  20
186.372
  0
VERTEX
  8
MMIC_Via
  10
-385.674
  20
186.588
  0
VERTEX
  8
MMIC_Via
  10
-384.246
  20
186.946
  0
VERTEX
  8
MMIC_Via
  10
-382.86
  20
187.442
  0
VERTEX
  8
MMIC_Via
  10
-381.529
  20
188.071
  0
VERTEX
  8
MMIC_Via
  10
-380.266
  20
188.828
  0
VERTEX
  8
MMIC_Via
  10
-379.084
  20
189.705
  0
VERTEX
  8
MMIC_Via
  10
-377.993
  20
190.693
  0
VERTEX
  8
MMIC_Via
  10
-377.005
  20
191.784
  0
VERTEX
  8
MMIC_Via
  10
-376.128
  20
192.966
  0
VERTEX
  8
MMIC_Via
  10
-375.371
  20
194.229
  0
VERTEX
  8
MMIC_Via
  10
-374.742
  20
195.56
  0
VERTEX
  8
MMIC_Via
  10
-374.246
  20
196.946
  0
VERTEX
  8
MMIC_Via
  10
-373.888
  20
198.374
  0
VERTEX
  8
MMIC_Via
  10
-373.672
  20
199.83
  0
VERTEX
  8
MMIC_Via
  10
-373.6
  20
201.3
  0
VERTEX
  8
MMIC_Via
  10
-373.672
  20
202.77
  0
VERTEX
  8
MMIC_Via
  10
-373.888
  20
204.226
  0
VERTEX
  8
MMIC_Via
  10
-374.246
  20
205.654
  0
VERTEX
  8
MMIC_Via
  10
-374.742
  20
207.04
  0
VERTEX
  8
MMIC_Via
  10
-375.371
  20
208.371
  0
VERTEX
  8
MMIC_Via
  10
-376.128
  20
209.634
  0
VERTEX
  8
MMIC_Via
  10
-377.005
  20
210.816
  0
VERTEX
  8
MMIC_Via
  10
-377.993
  20
211.907
  0
VERTEX
  8
MMIC_Via
  10
-379.084
  20
212.895
  0
VERTEX
  8
MMIC_Via
  10
-380.266
  20
213.772
  0
VERTEX
  8
MMIC_Via
  10
-381.529
  20
214.529
  0
VERTEX
  8
MMIC_Via
  10
-382.86
  20
215.158
  0
VERTEX
  8
MMIC_Via
  10
-384.246
  20
215.654
  0
VERTEX
  8
MMIC_Via
  10
-385.674
  20
216.012
  0
VERTEX
  8
MMIC_Via
  10
-387.13
  20
216.228
  0
VERTEX
  8
MMIC_Via
  10
-388.6
  20
216.3
  0
VERTEX
  8
MMIC_Via
  10
-418.6
  20
216.3
  0
VERTEX
  8
MMIC_Via
  10
-420.07
  20
216.228
  0
VERTEX
  8
MMIC_Via
  10
-421.526
  20
216.012
  0
VERTEX
  8
MMIC_Via
  10
-422.954
  20
215.654
  0
VERTEX
  8
MMIC_Via
  10
-424.34
  20
215.158
  0
VERTEX
  8
MMIC_Via
  10
-425.671
  20
214.529
  0
VERTEX
  8
MMIC_Via
  10
-426.934
  20
213.772
  0
VERTEX
  8
MMIC_Via
  10
-428.116
  20
212.895
  0
VERTEX
  8
MMIC_Via
  10
-429.207
  20
211.907
  0
VERTEX
  8
MMIC_Via
  10
-430.195
  20
210.816
  0
VERTEX
  8
MMIC_Via
  10
-431.072
  20
209.634
  0
VERTEX
  8
MMIC_Via
  10
-431.829
  20
208.371
  0
VERTEX
  8
MMIC_Via
  10
-432.458
  20
207.04
  0
VERTEX
  8
MMIC_Via
  10
-432.954
  20
205.654
  0
VERTEX
  8
MMIC_Via
  10
-433.312
  20
204.226
  0
VERTEX
  8
MMIC_Via
  10
-433.528
  20
202.77
  0
SEQEND
  0
POLYLINE
  8
MMIC_Via
  70
1
  66
1
  0
VERTEX
  8
MMIC_Via
  10
376.4
  20
201.3
  0
VERTEX
  8
MMIC_Via
  10
376.472
  20
199.83
  0
VERTEX
  8
MMIC_Via
  10
376.688
  20
198.374
  0
VERTEX
  8
MMIC_Via
  10
377.046
  20
196.946
  0
VERTEX
  8
MMIC_Via
  10
377.542
  20
195.56
  0
VERTEX
  8
MMIC_Via
  10
378.171
  20
194.229
  0
VERTEX
  8
MMIC_Via
  10
378.928
  20
192.966
  0
VERTEX
  8
MMIC_Via
  10
379.805
  20
191.784
  0
VERTEX
  8
MMIC_Via
  10
380.793
  20
190.693
  0
VERTEX
  8
MMIC_Via
  10
381.884
  20
189.705
  0
VERTEX
  8
MMIC_Via
  10
383.066
  20
188.828
  0
VERTEX
  8
MMIC_Via
  10
384.329
  20
188.071
  0
VERTEX
  8
MMIC_Via
  10
385.66
  20
187.442
  0
VERTEX
  8
MMIC_Via
  10
387.046
  20
186.946
  0
VERTEX
  8
MMIC_Via
  10
388.474
  20
186.588
  0
VERTEX
  8
MMIC_Via
  10
389.93
  20
186.372
  0
VERTEX
  8
MMIC_Via
  10
391.4
  20
186.3
  0
VERTEX
  8
MMIC_Via
  10
421.4
  20
186.3
  0
VERTEX
  8
MMIC_Via
  10
422.87
  20
186.372
  0
VERTEX
  8
MMIC_Via
  10
424.326
  20
186.588
  0
VERTEX
  8
MMIC_Via
  10
425.754
  20
186.946
  0
VERTEX
  8
MMIC_Via
  10
427.14
  20
187.442
  0
VERTEX
  8
MMIC_Via
  10
428.471
  20
188.071
  0
VERTEX
  8
MMIC_Via
  10
429.734
  20
188.828
  0
VERTEX
  8
MMIC_Via
  10
430.916
  20
189.705
  0
VERTEX
  8
MMIC_Via
  10
432.007
  20
190.693
  0
VERTEX
  8
MMIC_Via
  10
432.995
  20
191.784
  0
VERTEX
  8
MMIC_Via
  10
433.872
  20
192.966
  0
VERTEX
  8
MMIC_Via
  10
434.629
  20
194.229
  0
VERTEX
  8
MMIC_Via
  10
435.258
  20
195.56
  0
VERTEX
  8
MMIC_Via
  10
435.754
  20
196.946
  0
VERTEX
  8
MMIC_Via
  10
436.112
  20
198.374
  0
VERTEX
  8
MMIC_Via
  10
436.328
  20
199.83
  0
VERTEX
  8
MMIC_Via
  10
436.4
  20
201.3
  0
VERTEX
  8
MMIC_Via
  10
436.328
  20
202.77
  0
VERTEX
  8
MMIC_Via
  10
436.112
  20
204.226
  0
VERTEX
  8
MMIC_Via
  10
435.754
  20
205.654
  0
VERTEX
  8
MMIC_Via
  10
435.258
  20
207.04
  0
VERTEX
  8
MMIC_Via
  10
434.629
  20
208.371
  0
VERTEX
  8
MMIC_Via
  10
433.872
  20
209.634
  0
VERTEX
  8
MMIC_Via
  10
432.995
  20
210.816
  0
VERTEX
  8
MMIC_Via
  10
432.007
  20
211.907
  0
VERTEX
  8
MMIC_Via
  10
430.916
  20
212.895
  0
VERTEX
  8
MMIC_Via
  10
429.734
  20
213.772
  0
VERTEX
  8
MMIC_Via
  10
428.471
  20
214.529
  0
VERTEX
  8
MMIC_Via
  10
427.14
  20
215.158
  0
VERTEX
  8
MMIC_Via
  10
425.754
  20
215.654
  0
VERTEX
  8
MMIC_Via
  10
424.326
  20
216.012
  0
VERTEX
  8
MMIC_Via
  10
422.87
  20
216.228
  0
VERTEX
  8
MMIC_Via
  10
421.4
  20
216.3
  0
VERTEX
  8
MMIC_Via
  10
391.4
  20
216.3
  0
VERTEX
  8
MMIC_Via
  10
389.93
  20
216.228
  0
VERTEX
  8
MMIC_Via
  10
388.474
  20
216.012
  0
VERTEX
  8
MMIC_Via
  10
387.046
  20
215.654
  0
VERTEX
  8
MMIC_Via
  10
385.66
  20
215.158
  0
VERTEX
  8
MMIC_Via
  10
384.329
  20
214.529
  0
VERTEX
  8
MMIC_Via
  10
383.066
  20
213.772
  0
VERTEX
  8
MMIC_Via
  10
381.884
  20
212.895
  0
VERTEX
  8
MMIC_Via
  10
380.793
  20
211.907
  0
VERTEX
  8
MMIC_Via
  10
379.805
  20
210.816
  0
VERTEX
  8
MMIC_Via
  10
378.928
  20
209.634
  0
VERTEX
  8
MMIC_Via
  10
378.171
  20
208.371
  0
VERTEX
  8
MMIC_Via
  10
377.542
  20
207.04
  0
VERTEX
  8
MMIC_Via
  10
377.046
  20
205.654
  0
VERTEX
  8
MMIC_Via
  10
376.688
  20
204.226
  0
VERTEX
  8
MMIC_Via
  10
376.472
  20
202.77
  0
SEQEND
  0
POLYLINE
  8
MMIC_Via
  70
1
  66
1
  0
VERTEX
  8
MMIC_Via
  10
376.4
  20
-280.3
  0
VERTEX
  8
MMIC_Via
  10
376.472
  20
-281.77
  0
VERTEX
  8
MMIC_Via
  10
376.688
  20
-283.226
  0
VERTEX
  8
MMIC_Via
  10
377.046
  20
-284.654
  0
VERTEX
  8
MMIC_Via
  10
377.542
  20
-286.04
  0
VERTEX
  8
MMIC_Via
  10
378.171
  20
-287.371
  0
VERTEX
  8
MMIC_Via
  10
378.928
  20
-288.634
  0
VERTEX
  8
MMIC_Via
  10
379.805
  20
-289.816
  0
VERTEX
  8
MMIC_Via
  10
380.793
  20
-290.907
  0
VERTEX
  8
MMIC_Via
  10
381.884
  20
-291.895
  0
VERTEX
  8
MMIC_Via
  10
383.066
  20
-292.772
  0
VERTEX
  8
MMIC_Via
  10
384.329
  20
-293.529
  0
VERTEX
  8
MMIC_Via
  10
385.66
  20
-294.158
  0
VERTEX
  8
MMIC_Via
  10
387.046
  20
-294.654
  0
VERTEX
  8
MMIC_Via
  10
388.474
  20
-295.012
  0
VERTEX
  8
MMIC_Via
  10
389.93
  20
-295.228
  0
VERTEX
  8
MMIC_Via
  10
391.4
  20
-295.3
  0
VERTEX
  8
MMIC_Via
  10
421.4
  20
-295.3
  0
VERTEX
  8
MMIC_Via
  10
422.87
  20
-295.228
  0
VERTEX
  8
MMIC_Via
  10
424.326
  20
-295.012
  0
VERTEX
  8
MMIC_Via
  10
425.754
  20
-294.654
  0
VERTEX
  8
MMIC_Via
  10
427.14
  20
-294.158
  0
VERTEX
  8
MMIC_Via
  10
428.471
  20
-293.529
  0
VERTEX
  8
MMIC_Via
  10
429.734
  20
-292.772
  0
VERTEX
  8
MMIC_Via
  10
430.916
  20
-291.895
  0
VERTEX
  8
MMIC_Via
  10
432.007
  20
-290.907
  0
VERTEX
  8
MMIC_Via
  10
432.995
  20
-289.816
  0
VERTEX
  8
MMIC_Via
  10
433.872
  20
-288.634
  0
VERTEX
  8
MMIC_Via
  10
434.629
  20
-287.371
  0
VERTEX
  8
MMIC_Via
  10
435.258
  20
-286.04
  0
VERTEX
  8
MMIC_Via
  10
435.754
  20
-284.654
  0
VERTEX
  8
MMIC_Via
  10
436.112
  20
-283.226
  0
VERTEX
  8
MMIC_Via
  10
436.328
  20
-281.77
  0
VERTEX
  8
MMIC_Via
  10
436.4
  20
-280.3
  0
VERTEX
  8
MMIC_Via
  10
436.328
  20
-278.83
  0
VERTEX
  8
MMIC_Via
  10
436.112
  20
-277.374
  0
VERTEX
  8
MMIC_Via
  10
435.754
  20
-275.946
  0
VERTEX
  8
MMIC_Via
  10
435.258
  20
-274.56
  0
VERTEX
  8
MMIC_Via
  10
434.629
  20
-273.229
  0
VERTEX
  8
MMIC_Via
  10
433.872
  20
-271.966
  0
VERTEX
  8
MMIC_Via
  10
432.995
  20
-270.784
  0
VERTEX
  8
MMIC_Via
  10
432.007
  20
-269.693
  0
VERTEX
  8
MMIC_Via
  10
430.916
  20
-268.705
  0
VERTEX
  8
MMIC_Via
  10
429.734
  20
-267.828
  0
VERTEX
  8
MMIC_Via
  10
428.471
  20
-267.071
  0
VERTEX
  8
MMIC_Via
  10
427.14
  20
-266.442
  0
VERTEX
  8
MMIC_Via
  10
425.754
  20
-265.946
  0
VERTEX
  8
MMIC_Via
  10
424.326
  20
-265.588
  0
VERTEX
  8
MMIC_Via
  10
422.87
  20
-265.372
  0
VERTEX
  8
MMIC_Via
  10
421.4
  20
-265.3
  0
VERTEX
  8
MMIC_Via
  10
391.4
  20
-265.3
  0
VERTEX
  8
MMIC_Via
  10
389.93
  20
-265.372
  0
VERTEX
  8
MMIC_Via
  10
388.474
  20
-265.588
  0
VERTEX
  8
MMIC_Via
  10
387.046
  20
-265.946
  0
VERTEX
  8
MMIC_Via
  10
385.66
  20
-266.442
  0
VERTEX
  8
MMIC_Via
  10
384.329
  20
-267.071
  0
VERTEX
  8
MMIC_Via
  10
383.066
  20
-267.828
  0
VERTEX
  8
MMIC_Via
  10
381.884
  20
-268.705
  0
VERTEX
  8
MMIC_Via
  10
380.793
  20
-269.693
  0
VERTEX
  8
MMIC_Via
  10
379.805
  20
-270.784
  0
VERTEX
  8
MMIC_Via
  10
378.928
  20
-271.966
  0
VERTEX
  8
MMIC_Via
  10
378.171
  20
-273.229
  0
VERTEX
  8
MMIC_Via
  10
377.542
  20
-274.56
  0
VERTEX
  8
MMIC_Via
  10
377.046
  20
-275.946
  0
VERTEX
  8
MMIC_Via
  10
376.688
  20
-277.374
  0
VERTEX
  8
MMIC_Via
  10
376.472
  20
-278.83
  0
SEQEND
  0
POLYLINE
  8
MMIC_Via
  70
1
  66
1
  0
VERTEX
  8
MMIC_Via
  10
-433.6
  20
-280.3
  0
VERTEX
  8
MMIC_Via
  10
-433.528
  20
-281.77
  0
VERTEX
  8
MMIC_Via
  10
-433.312
  20
-283.226
  0
VERTEX
  8
MMIC_Via
  10
-432.954
  20
-284.654
  0
VERTEX
  8
MMIC_Via
  10
-432.458
  20
-286.04
  0
VERTEX
  8
MMIC_Via
  10
-431.829
  20
-287.371
  0
VERTEX
  8
MMIC_Via
  10
-431.072
  20
-288.634
  0
VERTEX
  8
MMIC_Via
  10
-430.195
  20
-289.816
  0
VERTEX
  8
MMIC_Via
  10
-429.207
  20
-290.907
  0
VERTEX
  8
MMIC_Via
  10
-428.116
  20
-291.895
  0
VERTEX
  8
MMIC_Via
  10
-426.934
  20
-292.772
  0
VERTEX
  8
MMIC_Via
  10
-425.671
  20
-293.529
  0
VERTEX
  8
MMIC_Via
  10
-424.34
  20
-294.158
  0
VERTEX
  8
MMIC_Via
  10
-422.954
  20
-294.654
  0
VERTEX
  8
MMIC_Via
  10
-421.526
  20
-295.012
  0
VERTEX
  8
MMIC_Via
  10
-420.07
  20
-295.228
  0
VERTEX
  8
MMIC_Via
  10
-418.6
  20
-295.3
  0
VERTEX
  8
MMIC_Via
  10
-388.6
  20
-295.3
  0
VERTEX
  8
MMIC_Via
  10
-387.13
  20
-295.228
  0
VERTEX
  8
MMIC_Via
  10
-385.674
  20
-295.012
  0
VERTEX
  8
MMIC_Via
  10
-384.246
  20
-294.654
  0
VERTEX
  8
MMIC_Via
  10
-382.86
  20
-294.158
  0
VERTEX
  8
MMIC_Via
  10
-381.529
  20
-293.529
  0
VERTEX
  8
MMIC_Via
  10
-380.266
  20
-292.772
  0
VERTEX
  8
MMIC_Via
  10
-379.084
  20
-291.895
  0
VERTEX
  8
MMIC_Via
  10
-377.993
  20
-290.907
  0
VERTEX
  8
MMIC_Via
  10
-377.005
  20
-289.816
  0
VERTEX
  8
MMIC_Via
  10
-376.128
  20
-288.634
  0
VERTEX
  8
MMIC_Via
  10
-375.371
  20
-287.371
  0
VERTEX
  8
MMIC_Via
  10
-374.742
  20
-286.04
  0
VERTEX
  8
MMIC_Via
  10
-374.246
  20
-284.654
  0
VERTEX
  8
MMIC_Via
  10
-373.888
  20
-283.226
  0
VERTEX
  8
MMIC_Via
  10
-373.672
  20
-281.77
  0
VERTEX
  8
MMIC_Via
  10
-373.6
  20
-280.3
  0
VERTEX
  8
MMIC_Via
  10
-373.672
  20
-278.83
  0
VERTEX
  8
MMIC_Via
  10
-373.888
  20
-277.374
  0
VERTEX
  8
MMIC_Via
  10
-374.246
  20
-275.946
  0
VERTEX
  8
MMIC_Via
  10
-374.742
  20
-274.56
  0
VERTEX
  8
MMIC_Via
  10
-375.371
  20
-273.229
  0
VERTEX
  8
MMIC_Via
  10
-376.128
  20
-271.966
  0
VERTEX
  8
MMIC_Via
  10
-377.005
  20
-270.784
  0
VERTEX
  8
MMIC_Via
  10
-377.993
  20
-269.693
  0
VERTEX
  8
MMIC_Via
  10
-379.084
  20
-268.705
  0
VERTEX
  8
MMIC_Via
  10
-380.266
  20
-267.828
  0
VERTEX
  8
MMIC_Via
  10
-381.529
  20
-267.071
  0
VERTEX
  8
MMIC_Via
  10
-382.86
  20
-266.442
  0
VERTEX
  8
MMIC_Via
  10
-384.246
  20
-265.946
  0
VERTEX
  8
MMIC_Via
  10
-385.674
  20
-265.588
  0
VERTEX
  8
MMIC_Via
  10
-387.13
  20
-265.372
  0
VERTEX
  8
MMIC_Via
  10
-388.6
  20
-265.3
  0
VERTEX
  8
MMIC_Via
  10
-418.6
  20
-265.3
  0
VERTEX
  8
MMIC_Via
  10
-420.07
  20
-265.372
  0
VERTEX
  8
MMIC_Via
  10
-421.526
  20
-265.588
  0
VERTEX
  8
MMIC_Via
  10
-422.954
  20
-265.946
  0
VERTEX
  8
MMIC_Via
  10
-424.34
  20
-266.442
  0
VERTEX
  8
MMIC_Via
  10
-425.671
  20
-267.071
  0
VERTEX
  8
MMIC_Via
  10
-426.934
  20
-267.828
  0
VERTEX
  8
MMIC_Via
  10
-428.116
  20
-268.705
  0
VERTEX
  8
MMIC_Via
  10
-429.207
  20
-269.693
  0
VERTEX
  8
MMIC_Via
  10
-430.195
  20
-270.784
  0
VERTEX
  8
MMIC_Via
  10
-431.072
  20
-271.966
  0
VERTEX
  8
MMIC_Via
  10
-431.829
  20
-273.229
  0
VERTEX
  8
MMIC_Via
  10
-432.458
  20
-274.56
  0
VERTEX
  8
MMIC_Via
  10
-432.954
  20
-275.946
  0
VERTEX
  8
MMIC_Via
  10
-433.312
  20
-277.374
  0
VERTEX
  8
MMIC_Via
  10
-433.528
  20
-278.83
  0
SEQEND
  0
POLYLINE
  8
MMIC_OverCoat
  70
1
  66
1
  0
VERTEX
  8
MMIC_OverCoat
  10
-372.197
  20
88.431
  0
VERTEX
  8
MMIC_OverCoat
  10
-371.273
  20
88.761
  0
VERTEX
  8
MMIC_OverCoat
  10
-370.386
  20
89.181
  0
VERTEX
  8
MMIC_OverCoat
  10
-369.544
  20
89.685
  0
VERTEX
  8
MMIC_OverCoat
  10
-368.756
  20
90.27
  0
VERTEX
  8
MMIC_OverCoat
  10
-368.029
  20
90.929
  0
VERTEX
  8
MMIC_OverCoat
  10
-367.37
  20
91.656
  0
VERTEX
  8
MMIC_OverCoat
  10
-366.785
  20
92.444
  0
VERTEX
  8
MMIC_OverCoat
  10
-366.281
  20
93.286
  0
VERTEX
  8
MMIC_OverCoat
  10
-365.861
  20
94.173
  0
VERTEX
  8
MMIC_OverCoat
  10
-365.531
  20
95.097
  0
VERTEX
  8
MMIC_OverCoat
  10
-365.292
  20
96.049
  0
VERTEX
  8
MMIC_OverCoat
  10
-365.148
  20
97.02
  0
VERTEX
  8
MMIC_OverCoat
  10
-365.1
  20
98
  0
VERTEX
  8
MMIC_OverCoat
  10
-365.1
  20
142
  0
VERTEX
  8
MMIC_OverCoat
  10
-365.148
  20
142.98
  0
VERTEX
  8
MMIC_OverCoat
  10
-365.292
  20
143.951
  0
VERTEX
  8
MMIC_OverCoat
  10
-365.531
  20
144.903
  0
VERTEX
  8
MMIC_OverCoat
  10
-365.861
  20
145.827
  0
VERTEX
  8
MMIC_OverCoat
  10
-366.281
  20
146.714
  0
VERTEX
  8
MMIC_OverCoat
  10
-366.785
  20
147.556
  0
VERTEX
  8
MMIC_OverCoat
  10
-367.37
  20
148.344
  0
VERTEX
  8
MMIC_OverCoat
  10
-368.029
  20
149.071
  0
VERTEX
  8
MMIC_OverCoat
  10
-368.756
  20
149.73
  0
VERTEX
  8
MMIC_OverCoat
  10
-369.544
  20
150.315
  0
VERTEX
  8
MMIC_OverCoat
  10
-370.386
  20
150.819
  0
VERTEX
  8
MMIC_OverCoat
  10
-371.273
  20
151.239
  0
VERTEX
  8
MMIC_OverCoat
  10
-372.197
  20
151.569
  0
VERTEX
  8
MMIC_OverCoat
  10
-373.149
  20
151.808
  0
VERTEX
  8
MMIC_OverCoat
  10
-374.12
  20
151.952
  0
VERTEX
  8
MMIC_OverCoat
  10
-375.1
  20
152
  0
VERTEX
  8
MMIC_OverCoat
  10
-445.1
  20
152
  0
VERTEX
  8
MMIC_OverCoat
  10
-446.08
  20
151.952
  0
VERTEX
  8
MMIC_OverCoat
  10
-447.051
  20
151.808
  0
VERTEX
  8
MMIC_OverCoat
  10
-448.003
  20
151.569
  0
VERTEX
  8
MMIC_OverCoat
  10
-448.927
  20
151.239
  0
VERTEX
  8
MMIC_OverCoat
  10
-449.814
  20
150.819
  0
VERTEX
  8
MMIC_OverCoat
  10
-450.656
  20
150.315
  0
VERTEX
  8
MMIC_OverCoat
  10
-451.444
  20
149.73
  0
VERTEX
  8
MMIC_OverCoat
  10
-452.171
  20
149.071
  0
VERTEX
  8
MMIC_OverCoat
  10
-452.83
  20
148.344
  0
VERTEX
  8
MMIC_OverCoat
  10
-453.415
  20
147.556
  0
VERTEX
  8
MMIC_OverCoat
  10
-453.919
  20
146.714
  0
VERTEX
  8
MMIC_OverCoat
  10
-454.339
  20
145.827
  0
VERTEX
  8
MMIC_OverCoat
  10
-454.669
  20
144.903
  0
VERTEX
  8
MMIC_OverCoat
  10
-454.908
  20
143.951
  0
VERTEX
  8
MMIC_OverCoat
  10
-455.052
  20
142.98
  0
VERTEX
  8
MMIC_OverCoat
  10
-455.1
  20
142
  0
VERTEX
  8
MMIC_OverCoat
  10
-455.1
  20
98
  0
VERTEX
  8
MMIC_OverCoat
  10
-455.052
  20
97.02
  0
VERTEX
  8
MMIC_OverCoat
  10
-454.908
  20
96.049
  0
VERTEX
  8
MMIC_OverCoat
  10
-454.669
  20
95.097
  0
VERTEX
  8
MMIC_OverCoat
  10
-454.339
  20
94.173
  0
VERTEX
  8
MMIC_OverCoat
  10
-453.919
  20
93.286
  0
VERTEX
  8
MMIC_OverCoat
  10
-453.415
  20
92.444
  0
VERTEX
  8
MMIC_OverCoat
  10
-452.83
  20
91.656
  0
VERTEX
  8
MMIC_OverCoat
  10
-452.171
  20
90.929
  0
VERTEX
  8
MMIC_OverCoat
  10
-451.444
  20
90.27
  0
VERTEX
  8
MMIC_OverCoat
  10
-450.656
  20
89.685
  0
VERTEX
  8
MMIC_OverCoat
  10
-449.814
  20
89.181
  0
VERTEX
  8
MMIC_OverCoat
  10
-448.927
  20
88.761
  0
VERTEX
  8
MMIC_OverCoat
  10
-448.003
  20
88.431
  0
VERTEX
  8
MMIC_OverCoat
  10
-447.051
  20
88.192
  0
VERTEX
  8
MMIC_OverCoat
  10
-446.08
  20
88.048
  0
VERTEX
  8
MMIC_OverCoat
  10
-445.1
  20
88
  0
VERTEX
  8
MMIC_OverCoat
  10
-375.1
  20
88
  0
VERTEX
  8
MMIC_OverCoat
  10
-374.12
  20
88.048
  0
VERTEX
  8
MMIC_OverCoat
  10
-373.149
  20
88.192
  0
SEQEND
  0
POLYLINE
  8
MMIC_OverCoat
  70
1
  66
1
  0
VERTEX
  8
MMIC_OverCoat
  10
450.803
  20
88.431
  0
VERTEX
  8
MMIC_OverCoat
  10
451.727
  20
88.761
  0
VERTEX
  8
MMIC_OverCoat
  10
452.614
  20
89.181
  0
VERTEX
  8
MMIC_OverCoat
  10
453.456
  20
89.685
  0
VERTEX
  8
MMIC_OverCoat
  10
454.244
  20
90.27
  0
VERTEX
  8
MMIC_OverCoat
  10
454.971
  20
90.929
  0
VERTEX
  8
MMIC_OverCoat
  10
455.63
  20
91.656
  0
VERTEX
  8
MMIC_OverCoat
  10
456.215
  20
92.444
  0
VERTEX
  8
MMIC_OverCoat
  10
456.719
  20
93.286
  0
VERTEX
  8
MMIC_OverCoat
  10
457.139
  20
94.173
  0
VERTEX
  8
MMIC_OverCoat
  10
457.469
  20
95.097
  0
VERTEX
  8
MMIC_OverCoat
  10
457.708
  20
96.049
  0
VERTEX
  8
MMIC_OverCoat
  10
457.852
  20
97.02
  0
VERTEX
  8
MMIC_OverCoat
  10
457.9
  20
98
  0
VERTEX
  8
MMIC_OverCoat
  10
457.9
  20
142
  0
VERTEX
  8
MMIC_OverCoat
  10
457.852
  20
142.98
  0
VERTEX
  8
MMIC_OverCoat
  10
457.708
  20
143.951
  0
VERTEX
  8
MMIC_OverCoat
  10
457.469
  20
144.903
  0
VERTEX
  8
MMIC_OverCoat
  10
457.139
  20
145.827
  0
VERTEX
  8
MMIC_OverCoat
  10
456.719
  20
146.714
  0
VERTEX
  8
MMIC_OverCoat
  10
456.215
  20
147.556
  0
VERTEX
  8
MMIC_OverCoat
  10
455.63
  20
148.344
  0
VERTEX
  8
MMIC_OverCoat
  10
454.971
  20
149.071
  0
VERTEX
  8
MMIC_OverCoat
  10
454.244
  20
149.73
  0
VERTEX
  8
MMIC_OverCoat
  10
453.456
  20
150.315
  0
VERTEX
  8
MMIC_OverCoat
  10
452.614
  20
150.819
  0
VERTEX
  8
MMIC_OverCoat
  10
451.727
  20
151.239
  0
VERTEX
  8
MMIC_OverCoat
  10
450.803
  20
151.569
  0
VERTEX
  8
MMIC_OverCoat
  10
449.851
  20
151.808
  0
VERTEX
  8
MMIC_OverCoat
  10
448.88
  20
151.952
  0
VERTEX
  8
MMIC_OverCoat
  10
447.9
  20
152
  0
VERTEX
  8
MMIC_OverCoat
  10
377.9
  20
152
  0
VERTEX
  8
MMIC_OverCoat
  10
376.92
  20
151.952
  0
VERTEX
  8
MMIC_OverCoat
  10
375.949
  20
151.808
  0
VERTEX
  8
MMIC_OverCoat
  10
374.997
  20
151.569
  0
VERTEX
  8
MMIC_OverCoat
  10
374.073
  20
151.239
  0
VERTEX
  8
MMIC_OverCoat
  10
373.186
  20
150.819
  0
VERTEX
  8
MMIC_OverCoat
  10
372.344
  20
150.315
  0
VERTEX
  8
MMIC_OverCoat
  10
371.556
  20
149.73
  0
VERTEX
  8
MMIC_OverCoat
  10
370.829
  20
149.071
  0
VERTEX
  8
MMIC_OverCoat
  10
370.17
  20
148.344
  0
VERTEX
  8
MMIC_OverCoat
  10
369.585
  20
147.556
  0
VERTEX
  8
MMIC_OverCoat
  10
369.081
  20
146.714
  0
VERTEX
  8
MMIC_OverCoat
  10
368.661
  20
145.827
  0
VERTEX
  8
MMIC_OverCoat
  10
368.331
  20
144.903
  0
VERTEX
  8
MMIC_OverCoat
  10
368.092
  20
143.951
  0
VERTEX
  8
MMIC_OverCoat
  10
367.948
  20
142.98
  0
VERTEX
  8
MMIC_OverCoat
  10
367.9
  20
142
  0
VERTEX
  8
MMIC_OverCoat
  10
367.9
  20
98
  0
VERTEX
  8
MMIC_OverCoat
  10
367.948
  20
97.02
  0
VERTEX
  8
MMIC_OverCoat
  10
368.092
  20
96.049
  0
VERTEX
  8
MMIC_OverCoat
  10
368.331
  20
95.097
  0
VERTEX
  8
MMIC_OverCoat
  10
368.661
  20
94.173
  0
VERTEX
  8
MMIC_OverCoat
  10
369.081
  20
93.286
  0
VERTEX
  8
MMIC_OverCoat
  10
369.585
  20
92.444
  0
VERTEX
  8
MMIC_OverCoat
  10
370.17
  20
91.656
  0
VERTEX
  8
MMIC_OverCoat
  10
370.829
  20
90.929
  0
VERTEX
  8
MMIC_OverCoat
  10
371.556
  20
90.27
  0
VERTEX
  8
MMIC_OverCoat
  10
372.344
  20
89.685
  0
VERTEX
  8
MMIC_OverCoat
  10
373.186
  20
89.181
  0
VERTEX
  8
MMIC_OverCoat
  10
374.073
  20
88.761
  0
VERTEX
  8
MMIC_OverCoat
  10
374.997
  20
88.431
  0
VERTEX
  8
MMIC_OverCoat
  10
375.949
  20
88.192
  0
VERTEX
  8
MMIC_OverCoat
  10
376.92
  20
88.048
  0
VERTEX
  8
MMIC_OverCoat
  10
377.9
  20
88
  0
VERTEX
  8
MMIC_OverCoat
  10
447.9
  20
88
  0
VERTEX
  8
MMIC_OverCoat
  10
448.88
  20
88.048
  0
VERTEX
  8
MMIC_OverCoat
  10
449.851
  20
88.192
  0
SEQEND
  0
POLYLINE
  8
MMIC_OverCoat
  70
1
  66
1
  0
VERTEX
  8
MMIC_OverCoat
  10
-372.197
  20
-133.569
  0
VERTEX
  8
MMIC_OverCoat
  10
-371.273
  20
-133.239
  0
VERTEX
  8
MMIC_OverCoat
  10
-370.386
  20
-132.819
  0
VERTEX
  8
MMIC_OverCoat
  10
-369.544
  20
-132.315
  0
VERTEX
  8
MMIC_OverCoat
  10
-368.756
  20
-131.73
  0
VERTEX
  8
MMIC_OverCoat
  10
-368.029
  20
-131.071
  0
VERTEX
  8
MMIC_OverCoat
  10
-367.37
  20
-130.344
  0
VERTEX
  8
MMIC_OverCoat
  10
-366.785
  20
-129.556
  0
VERTEX
  8
MMIC_OverCoat
  10
-366.281
  20
-128.714
  0
VERTEX
  8
MMIC_OverCoat
  10
-365.861
  20
-127.827
  0
VERTEX
  8
MMIC_OverCoat
  10
-365.531
  20
-126.903
  0
VERTEX
  8
MMIC_OverCoat
  10
-365.292
  20
-125.951
  0
VERTEX
  8
MMIC_OverCoat
  10
-365.148
  20
-124.98
  0
VERTEX
  8
MMIC_OverCoat
  10
-365.1
  20
-124
  0
VERTEX
  8
MMIC_OverCoat
  10
-365.1
  20
45
  0
VERTEX
  8
MMIC_OverCoat
  10
-365.148
  20
45.98
  0
VERTEX
  8
MMIC_OverCoat
  10
-365.292
  20
46.951
  0
VERTEX
  8
MMIC_OverCoat
  10
-365.531
  20
47.903
  0
VERTEX
  8
MMIC_OverCoat
  10
-365.861
  20
48.827
  0
VERTEX
  8
MMIC_OverCoat
  10
-366.281
  20
49.714
  0
VERTEX
  8
MMIC_OverCoat
  10
-366.785
  20
50.556
  0
VERTEX
  8
MMIC_OverCoat
  10
-367.37
  20
51.344
  0
VERTEX
  8
MMIC_OverCoat
  10
-368.029
  20
52.071
  0
VERTEX
  8
MMIC_OverCoat
  10
-368.756
  20
52.73
  0
VERTEX
  8
MMIC_OverCoat
  10
-369.544
  20
53.315
  0
VERTEX
  8
MMIC_OverCoat
  10
-370.386
  20
53.819
  0
VERTEX
  8
MMIC_OverCoat
  10
-371.273
  20
54.239
  0
VERTEX
  8
MMIC_OverCoat
  10
-372.197
  20
54.569
  0
VERTEX
  8
MMIC_OverCoat
  10
-373.149
  20
54.808
  0
VERTEX
  8
MMIC_OverCoat
  10
-374.12
  20
54.952
  0
VERTEX
  8
MMIC_OverCoat
  10
-375.1
  20
55
  0
VERTEX
  8
MMIC_OverCoat
  10
-445.1
  20
55
  0
VERTEX
  8
MMIC_OverCoat
  10
-446.08
  20
54.952
  0
VERTEX
  8
MMIC_OverCoat
  10
-447.051
  20
54.808
  0
VERTEX
  8
MMIC_OverCoat
  10
-448.003
  20
54.569
  0
VERTEX
  8
MMIC_OverCoat
  10
-448.927
  20
54.239
  0
VERTEX
  8
MMIC_OverCoat
  10
-449.814
  20
53.819
  0
VERTEX
  8
MMIC_OverCoat
  10
-450.656
  20
53.315
  0
VERTEX
  8
MMIC_OverCoat
  10
-451.444
  20
52.73
  0
VERTEX
  8
MMIC_OverCoat
  10
-452.171
  20
52.071
  0
VERTEX
  8
MMIC_OverCoat
  10
-452.83
  20
51.344
  0
VERTEX
  8
MMIC_OverCoat
  10
-453.415
  20
50.556
  0
VERTEX
  8
MMIC_OverCoat
  10
-453.919
  20
49.714
  0
VERTEX
  8
MMIC_OverCoat
  10
-454.339
  20
48.827
  0
VERTEX
  8
MMIC_OverCoat
  10
-454.669
  20
47.903
  0
VERTEX
  8
MMIC_OverCoat
  10
-454.908
  20
46.951
  0
VERTEX
  8
MMIC_OverCoat
  10
-455.052
  20
45.98
  0
VERTEX
  8
MMIC_OverCoat
  10
-455.1
  20
45
  0
VERTEX
  8
MMIC_OverCoat
  10
-455.1
  20
-124
  0
VERTEX
  8
MMIC_OverCoat
  10
-455.052
  20
-124.98
  0
VERTEX
  8
MMIC_OverCoat
  10
-454.908
  20
-125.951
  0
VERTEX
  8
MMIC_OverCoat
  10
-454.669
  20
-126.903
  0
VERTEX
  8
MMIC_OverCoat
  10
-454.339
  20
-127.827
  0
VERTEX
  8
MMIC_OverCoat
  10
-453.919
  20
-128.714
  0
VERTEX
  8
MMIC_OverCoat
  10
-453.415
  20
-129.556
  0
VERTEX
  8
MMIC_OverCoat
  10
-452.83
  20
-130.344
  0
VERTEX
  8
MMIC_OverCoat
  10
-452.171
  20
-131.071
  0
VERTEX
  8
MMIC_OverCoat
  10
-451.444
  20
-131.73
  0
VERTEX
  8
MMIC_OverCoat
  10
-450.656
  20
-132.315
  0
VERTEX
  8
MMIC_OverCoat
  10
-449.814
  20
-132.819
  0
VERTEX
  8
MMIC_OverCoat
  10
-448.927
  20
-133.239
  0
VERTEX
  8
MMIC_OverCoat
  10
-448.003
  20
-133.569
  0
VERTEX
  8
MMIC_OverCoat
  10
-447.051
  20
-133.808
  0
VERTEX
  8
MMIC_OverCoat
  10
-446.08
  20
-133.952
  0
VERTEX
  8
MMIC_OverCoat
  10
-445.1
  20
-134
  0
VERTEX
  8
MMIC_OverCoat
  10
-375.1
  20
-134
  0
VERTEX
  8
MMIC_OverCoat
  10
-374.12
  20
-133.952
  0
VERTEX
  8
MMIC_OverCoat
  10
-373.149
  20
-133.808
  0
SEQEND
  0
POLYLINE
  8
MMIC_OverCoat
  70
1
  66
1
  0
VERTEX
  8
MMIC_OverCoat
  10
450.803
  20
-230.569
  0
VERTEX
  8
MMIC_OverCoat
  10
451.727
  20
-230.239
  0
VERTEX
  8
MMIC_OverCoat
  10
452.614
  20
-229.819
  0
VERTEX
  8
MMIC_OverCoat
  10
453.456
  20
-229.315
  0
VERTEX
  8
MMIC_OverCoat
  10
454.244
  20
-228.73
  0
VERTEX
  8
MMIC_OverCoat
  10
454.971
  20
-228.071
  0
VERTEX
  8
MMIC_OverCoat
  10
455.63
  20
-227.344
  0
VERTEX
  8
MMIC_OverCoat
  10
456.215
  20
-226.556
  0
VERTEX
  8
MMIC_OverCoat
  10
456.719
  20
-225.714
  0
VERTEX
  8
MMIC_OverCoat
  10
457.139
  20
-224.827
  0
VERTEX
  8
MMIC_OverCoat
  10
457.469
  20
-223.903
  0
VERTEX
  8
MMIC_OverCoat
  10
457.708
  20
-222.951
  0
VERTEX
  8
MMIC_OverCoat
  10
457.852
  20
-221.98
  0
VERTEX
  8
MMIC_OverCoat
  10
457.9
  20
-221
  0
VERTEX
  8
MMIC_OverCoat
  10
457.9
  20
-177
  0
VERTEX
  8
MMIC_OverCoat
  10
457.852
  20
-176.02
  0
VERTEX
  8
MMIC_OverCoat
  10
457.708
  20
-175.049
  0
VERTEX
  8
MMIC_OverCoat
  10
457.469
  20
-174.097
  0
VERTEX
  8
MMIC_OverCoat
  10
457.139
  20
-173.173
  0
VERTEX
  8
MMIC_OverCoat
  10
456.719
  20
-172.286
  0
VERTEX
  8
MMIC_OverCoat
  10
456.215
  20
-171.444
  0
VERTEX
  8
MMIC_OverCoat
  10
455.63
  20
-170.656
  0
VERTEX
  8
MMIC_OverCoat
  10
454.971
  20
-169.929
  0
VERTEX
  8
MMIC_OverCoat
  10
454.244
  20
-169.27
  0
VERTEX
  8
MMIC_OverCoat
  10
453.456
  20
-168.685
  0
VERTEX
  8
MMIC_OverCoat
  10
452.614
  20
-168.181
  0
VERTEX
  8
MMIC_OverCoat
  10
451.727
  20
-167.761
  0
VERTEX
  8
MMIC_OverCoat
  10
450.803
  20
-167.431
  0
VERTEX
  8
MMIC_OverCoat
  10
449.851
  20
-167.192
  0
VERTEX
  8
MMIC_OverCoat
  10
448.88
  20
-167.048
  0
VERTEX
  8
MMIC_OverCoat
  10
447.9
  20
-167
  0
VERTEX
  8
MMIC_OverCoat
  10
377.9
  20
-167
  0
VERTEX
  8
MMIC_OverCoat
  10
376.92
  20
-167.048
  0
VERTEX
  8
MMIC_OverCoat
  10
375.949
  20
-167.192
  0
VERTEX
  8
MMIC_OverCoat
  10
374.997
  20
-167.431
  0
VERTEX
  8
MMIC_OverCoat
  10
374.073
  20
-167.761
  0
VERTEX
  8
MMIC_OverCoat
  10
373.186
  20
-168.181
  0
VERTEX
  8
MMIC_OverCoat
  10
372.344
  20
-168.685
  0
VERTEX
  8
MMIC_OverCoat
  10
371.556
  20
-169.27
  0
VERTEX
  8
MMIC_OverCoat
  10
370.829
  20
-169.929
  0
VERTEX
  8
MMIC_OverCoat
  10
370.17
  20
-170.656
  0
VERTEX
  8
MMIC_OverCoat
  10
369.585
  20
-171.444
  0
VERTEX
  8
MMIC_OverCoat
  10
369.081
  20
-172.286
  0
VERTEX
  8
MMIC_OverCoat
  10
368.661
  20
-173.173
  0
VERTEX
  8
MMIC_OverCoat
  10
368.331
  20
-174.097
  0
VERTEX
  8
MMIC_OverCoat
  10
368.092
  20
-175.049
  0
VERTEX
  8
MMIC_OverCoat
  10
367.948
  20
-176.02
  0
VERTEX
  8
MMIC_OverCoat
  10
367.9
  20
-177
  0
VERTEX
  8
MMIC_OverCoat
  10
367.9
  20
-221
  0
VERTEX
  8
MMIC_OverCoat
  10
367.948
  20
-221.98
  0
VERTEX
  8
MMIC_OverCoat
  10
368.092
  20
-222.951
  0
VERTEX
  8
MMIC_OverCoat
  10
368.331
  20
-223.903
  0
VERTEX
  8
MMIC_OverCoat
  10
368.661
  20
-224.827
  0
VERTEX
  8
MMIC_OverCoat
  10
369.081
  20
-225.714
  0
VERTEX
  8
MMIC_OverCoat
  10
369.585
  20
-226.556
  0
VERTEX
  8
MMIC_OverCoat
  10
370.17
  20
-227.344
  0
VERTEX
  8
MMIC_OverCoat
  10
370.829
  20
-228.071
  0
VERTEX
  8
MMIC_OverCoat
  10
371.556
  20
-228.73
  0
VERTEX
  8
MMIC_OverCoat
  10
372.344
  20
-229.315
  0
VERTEX
  8
MMIC_OverCoat
  10
373.186
  20
-229.819
  0
VERTEX
  8
MMIC_OverCoat
  10
374.073
  20
-230.239
  0
VERTEX
  8
MMIC_OverCoat
  10
374.997
  20
-230.569
  0
VERTEX
  8
MMIC_OverCoat
  10
375.949
  20
-230.808
  0
VERTEX
  8
MMIC_OverCoat
  10
376.92
  20
-230.952
  0
VERTEX
  8
MMIC_OverCoat
  10
377.9
  20
-231
  0
VERTEX
  8
MMIC_OverCoat
  10
447.9
  20
-231
  0
VERTEX
  8
MMIC_OverCoat
  10
448.88
  20
-230.952
  0
VERTEX
  8
MMIC_OverCoat
  10
449.851
  20
-230.808
  0
SEQEND
  0
POLYLINE
  8
MMIC_OverCoat
  70
1
  66
1
  0
VERTEX
  8
MMIC_OverCoat
  10
450.803
  20
-133.569
  0
VERTEX
  8
MMIC_OverCoat
  10
451.727
  20
-133.239
  0
VERTEX
  8
MMIC_OverCoat
  10
452.614
  20
-132.819
  0
VERTEX
  8
MMIC_OverCoat
  10
453.456
  20
-132.315
  0
VERTEX
  8
MMIC_OverCoat
  10
454.244
  20
-131.73
  0
VERTEX
  8
MMIC_OverCoat
  10
454.971
  20
-131.071
  0
VERTEX
  8
MMIC_OverCoat
  10
455.63
  20
-130.344
  0
VERTEX
  8
MMIC_OverCoat
  10
456.215
  20
-129.556
  0
VERTEX
  8
MMIC_OverCoat
  10
456.719
  20
-128.714
  0
VERTEX
  8
MMIC_OverCoat
  10
457.139
  20
-127.827
  0
VERTEX
  8
MMIC_OverCoat
  10
457.469
  20
-126.903
  0
VERTEX
  8
MMIC_OverCoat
  10
457.708
  20
-125.951
  0
VERTEX
  8
MMIC_OverCoat
  10
457.852
  20
-124.98
  0
VERTEX
  8
MMIC_OverCoat
  10
457.9
  20
-124
  0
VERTEX
  8
MMIC_OverCoat
  10
457.9
  20
45
  0
VERTEX
  8
MMIC_OverCoat
  10
457.852
  20
45.98
  0
VERTEX
  8
MMIC_OverCoat
  10
457.708
  20
46.951
  0
VERTEX
  8
MMIC_OverCoat
  10
457.469
  20
47.903
  0
VERTEX
  8
MMIC_OverCoat
  10
457.139
  20
48.827
  0
VERTEX
  8
MMIC_OverCoat
  10
456.719
  20
49.714
  0
VERTEX
  8
MMIC_OverCoat
  10
456.215
  20
50.556
  0
VERTEX
  8
MMIC_OverCoat
  10
455.63
  20
51.344
  0
VERTEX
  8
MMIC_OverCoat
  10
454.971
  20
52.071
  0
VERTEX
  8
MMIC_OverCoat
  10
454.244
  20
52.73
  0
VERTEX
  8
MMIC_OverCoat
  10
453.456
  20
53.315
  0
VERTEX
  8
MMIC_OverCoat
  10
452.614
  20
53.819
  0
VERTEX
  8
MMIC_OverCoat
  10
451.727
  20
54.239
  0
VERTEX
  8
MMIC_OverCoat
  10
450.803
  20
54.569
  0
VERTEX
  8
MMIC_OverCoat
  10
449.851
  20
54.808
  0
VERTEX
  8
MMIC_OverCoat
  10
448.88
  20
54.952
  0
VERTEX
  8
MMIC_OverCoat
  10
447.9
  20
55
  0
VERTEX
  8
MMIC_OverCoat
  10
377.9
  20
55
  0
VERTEX
  8
MMIC_OverCoat
  10
376.92
  20
54.952
  0
VERTEX
  8
MMIC_OverCoat
  10
375.949
  20
54.808
  0
VERTEX
  8
MMIC_OverCoat
  10
374.997
  20
54.569
  0
VERTEX
  8
MMIC_OverCoat
  10
374.073
  20
54.239
  0
VERTEX
  8
MMIC_OverCoat
  10
373.186
  20
53.819
  0
VERTEX
  8
MMIC_OverCoat
  10
372.344
  20
53.315
  0
VERTEX
  8
MMIC_OverCoat
  10
371.556
  20
52.73
  0
VERTEX
  8
MMIC_OverCoat
  10
370.829
  20
52.071
  0
VERTEX
  8
MMIC_OverCoat
  10
370.17
  20
51.344
  0
VERTEX
  8
MMIC_OverCoat
  10
369.585
  20
50.556
  0
VERTEX
  8
MMIC_OverCoat
  10
369.081
  20
49.714
  0
VERTEX
  8
MMIC_OverCoat
  10
368.661
  20
48.827
  0
VERTEX
  8
MMIC_OverCoat
  10
368.331
  20
47.903
  0
VERTEX
  8
MMIC_OverCoat
  10
368.092
  20
46.951
  0
VERTEX
  8
MMIC_OverCoat
  10
367.948
  20
45.98
  0
VERTEX
  8
MMIC_OverCoat
  10
367.9
  20
45
  0
VERTEX
  8
MMIC_OverCoat
  10
367.9
  20
-124
  0
VERTEX
  8
MMIC_OverCoat
  10
367.948
  20
-124.98
  0
VERTEX
  8
MMIC_OverCoat
  10
368.092
  20
-125.951
  0
VERTEX
  8
MMIC_OverCoat
  10
368.331
  20
-126.903
  0
VERTEX
  8
MMIC_OverCoat
  10
368.661
  20
-127.827
  0
VERTEX
  8
MMIC_OverCoat
  10
369.081
  20
-128.714
  0
VERTEX
  8
MMIC_OverCoat
  10
369.585
  20
-129.556
  0
VERTEX
  8
MMIC_OverCoat
  10
370.17
  20
-130.344
  0
VERTEX
  8
MMIC_OverCoat
  10
370.829
  20
-131.071
  0
VERTEX
  8
MMIC_OverCoat
  10
371.556
  20
-131.73
  0
VERTEX
  8
MMIC_OverCoat
  10
372.344
  20
-132.315
  0
VERTEX
  8
MMIC_OverCoat
  10
373.186
  20
-132.819
  0
VERTEX
  8
MMIC_OverCoat
  10
374.073
  20
-133.239
  0
VERTEX
  8
MMIC_OverCoat
  10
374.997
  20
-133.569
  0
VERTEX
  8
MMIC_OverCoat
  10
375.949
  20
-133.808
  0
VERTEX
  8
MMIC_OverCoat
  10
376.92
  20
-133.952
  0
VERTEX
  8
MMIC_OverCoat
  10
377.9
  20
-134
  0
VERTEX
  8
MMIC_OverCoat
  10
447.9
  20
-134
  0
VERTEX
  8
MMIC_OverCoat
  10
448.88
  20
-133.952
  0
VERTEX
  8
MMIC_OverCoat
  10
449.851
  20
-133.808
  0
SEQEND
  0
POLYLINE
  8
MMIC_OverCoat
  70
1
  66
1
  0
VERTEX
  8
MMIC_OverCoat
  10
-372.197
  20
-230.569
  0
VERTEX
  8
MMIC_OverCoat
  10
-371.273
  20
-230.239
  0
VERTEX
  8
MMIC_OverCoat
  10
-370.386
  20
-229.819
  0
VERTEX
  8
MMIC_OverCoat
  10
-369.544
  20
-229.315
  0
VERTEX
  8
MMIC_OverCoat
  10
-368.756
  20
-228.73
  0
VERTEX
  8
MMIC_OverCoat
  10
-368.029
  20
-228.071
  0
VERTEX
  8
MMIC_OverCoat
  10
-367.37
  20
-227.344
  0
VERTEX
  8
MMIC_OverCoat
  10
-366.785
  20
-226.556
  0
VERTEX
  8
MMIC_OverCoat
  10
-366.281
  20
-225.714
  0
VERTEX
  8
MMIC_OverCoat
  10
-365.861
  20
-224.827
  0
VERTEX
  8
MMIC_OverCoat
  10
-365.531
  20
-223.903
  0
VERTEX
  8
MMIC_OverCoat
  10
-365.292
  20
-222.951
  0
VERTEX
  8
MMIC_OverCoat
  10
-365.148
  20
-221.98
  0
VERTEX
  8
MMIC_OverCoat
  10
-365.1
  20
-221
  0
VERTEX
  8
MMIC_OverCoat
  10
-365.1
  20
-177
  0
VERTEX
  8
MMIC_OverCoat
  10
-365.148
  20
-176.02
  0
VERTEX
  8
MMIC_OverCoat
  10
-365.292
  20
-175.049
  0
VERTEX
  8
MMIC_OverCoat
  10
-365.531
  20
-174.097
  0
VERTEX
  8
MMIC_OverCoat
  10
-365.861
  20
-173.173
  0
VERTEX
  8
MMIC_OverCoat
  10
-366.281
  20
-172.286
  0
VERTEX
  8
MMIC_OverCoat
  10
-366.785
  20
-171.444
  0
VERTEX
  8
MMIC_OverCoat
  10
-367.37
  20
-170.656
  0
VERTEX
  8
MMIC_OverCoat
  10
-368.029
  20
-169.929
  0
VERTEX
  8
MMIC_OverCoat
  10
-368.756
  20
-169.27
  0
VERTEX
  8
MMIC_OverCoat
  10
-369.544
  20
-168.685
  0
VERTEX
  8
MMIC_OverCoat
  10
-370.386
  20
-168.181
  0
VERTEX
  8
MMIC_OverCoat
  10
-371.273
  20
-167.761
  0
VERTEX
  8
MMIC_OverCoat
  10
-372.197
  20
-167.431
  0
VERTEX
  8
MMIC_OverCoat
  10
-373.149
  20
-167.192
  0
VERTEX
  8
MMIC_OverCoat
  10
-374.12
  20
-167.048
  0
VERTEX
  8
MMIC_OverCoat
  10
-375.1
  20
-167
  0
VERTEX
  8
MMIC_OverCoat
  10
-445.1
  20
-167
  0
VERTEX
  8
MMIC_OverCoat
  10
-446.08
  20
-167.048
  0
VERTEX
  8
MMIC_OverCoat
  10
-447.051
  20
-167.192
  0
VERTEX
  8
MMIC_OverCoat
  10
-448.003
  20
-167.431
  0
VERTEX
  8
MMIC_OverCoat
  10
-448.927
  20
-167.761
  0
VERTEX
  8
MMIC_OverCoat
  10
-449.814
  20
-168.181
  0
VERTEX
  8
MMIC_OverCoat
  10
-450.656
  20
-168.685
  0
VERTEX
  8
MMIC_OverCoat
  10
-451.444
  20
-169.27
  0
VERTEX
  8
MMIC_OverCoat
  10
-452.171
  20
-169.929
  0
VERTEX
  8
MMIC_OverCoat
  10
-452.83
  20
-170.656
  0
VERTEX
  8
MMIC_OverCoat
  10
-453.415
  20
-171.444
  0
VERTEX
  8
MMIC_OverCoat
  10
-453.919
  20
-172.286
  0
VERTEX
  8
MMIC_OverCoat
  10
-454.339
  20
-173.173
  0
VERTEX
  8
MMIC_OverCoat
  10
-454.669
  20
-174.097
  0
VERTEX
  8
MMIC_OverCoat
  10
-454.908
  20
-175.049
  0
VERTEX
  8
MMIC_OverCoat
  10
-455.052
  20
-176.02
  0
VERTEX
  8
MMIC_OverCoat
  10
-455.1
  20
-177
  0
VERTEX
  8
MMIC_OverCoat
  10
-455.1
  20
-221
  0
VERTEX
  8
MMIC_OverCoat
  10
-455.052
  20
-221.98
  0
VERTEX
  8
MMIC_OverCoat
  10
-454.908
  20
-222.951
  0
VERTEX
  8
MMIC_OverCoat
  10
-454.669
  20
-223.903
  0
VERTEX
  8
MMIC_OverCoat
  10
-454.339
  20
-224.827
  0
VERTEX
  8
MMIC_OverCoat
  10
-453.919
  20
-225.714
  0
VERTEX
  8
MMIC_OverCoat
  10
-453.415
  20
-226.556
  0
VERTEX
  8
MMIC_OverCoat
  10
-452.83
  20
-227.344
  0
VERTEX
  8
MMIC_OverCoat
  10
-452.171
  20
-228.071
  0
VERTEX
  8
MMIC_OverCoat
  10
-451.444
  20
-228.73
  0
VERTEX
  8
MMIC_OverCoat
  10
-450.656
  20
-229.315
  0
VERTEX
  8
MMIC_OverCoat
  10
-449.814
  20
-229.819
  0
VERTEX
  8
MMIC_OverCoat
  10
-448.927
  20
-230.239
  0
VERTEX
  8
MMIC_OverCoat
  10
-448.003
  20
-230.569
  0
VERTEX
  8
MMIC_OverCoat
  10
-447.051
  20
-230.808
  0
VERTEX
  8
MMIC_OverCoat
  10
-446.08
  20
-230.952
  0
VERTEX
  8
MMIC_OverCoat
  10
-445.1
  20
-231
  0
VERTEX
  8
MMIC_OverCoat
  10
-375.1
  20
-231
  0
VERTEX
  8
MMIC_OverCoat
  10
-374.12
  20
-230.952
  0
VERTEX
  8
MMIC_OverCoat
  10
-373.149
  20
-230.808
  0
SEQEND
  0
POLYLINE
  8
MMIC_Trace
  70
1
  66
1
  0
VERTEX
  8
MMIC_Trace
  10
452.7
  20
-236.5
  0
VERTEX
  8
MMIC_Trace
  10
453.4
  20
-236.5
  0
VERTEX
  8
MMIC_Trace
  10
454.38
  20
-236.452
  0
VERTEX
  8
MMIC_Trace
  10
455.351
  20
-236.308
  0
VERTEX
  8
MMIC_Trace
  10
456.303
  20
-236.069
  0
VERTEX
  8
MMIC_Trace
  10
457.227
  20
-235.739
  0
VERTEX
  8
MMIC_Trace
  10
458.114
  20
-235.319
  0
VERTEX
  8
MMIC_Trace
  10
458.956
  20
-234.815
  0
VERTEX
  8
MMIC_Trace
  10
459.744
  20
-234.23
  0
VERTEX
  8
MMIC_Trace
  10
460.471
  20
-233.571
  0
VERTEX
  8
MMIC_Trace
  10
461.13
  20
-232.844
  0
VERTEX
  8
MMIC_Trace
  10
461.715
  20
-232.056
  0
VERTEX
  8
MMIC_Trace
  10
462.219
  20
-231.214
  0
VERTEX
  8
MMIC_Trace
  10
462.639
  20
-230.327
  0
VERTEX
  8
MMIC_Trace
  10
462.969
  20
-229.403
  0
VERTEX
  8
MMIC_Trace
  10
463.208
  20
-228.451
  0
VERTEX
  8
MMIC_Trace
  10
463.352
  20
-227.48
  0
VERTEX
  8
MMIC_Trace
  10
463.4
  20
-226.5
  0
VERTEX
  8
MMIC_Trace
  10
463.4
  20
-171.5
  0
VERTEX
  8
MMIC_Trace
  10
463.352
  20
-170.52
  0
VERTEX
  8
MMIC_Trace
  10
463.208
  20
-169.549
  0
VERTEX
  8
MMIC_Trace
  10
462.969
  20
-168.597
  0
VERTEX
  8
MMIC_Trace
  10
462.639
  20
-167.673
  0
VERTEX
  8
MMIC_Trace
  10
462.219
  20
-166.786
  0
VERTEX
  8
MMIC_Trace
  10
461.715
  20
-165.944
  0
VERTEX
  8
MMIC_Trace
  10
461.13
  20
-165.156
  0
VERTEX
  8
MMIC_Trace
  10
460.471
  20
-164.429
  0
VERTEX
  8
MMIC_Trace
  10
459.744
  20
-163.77
  0
VERTEX
  8
MMIC_Trace
  10
458.956
  20
-163.185
  0
VERTEX
  8
MMIC_Trace
  10
458.114
  20
-162.681
  0
VERTEX
  8
MMIC_Trace
  10
457.227
  20
-162.261
  0
VERTEX
  8
MMIC_Trace
  10
456.303
  20
-161.931
  0
VERTEX
  8
MMIC_Trace
  10
455.351
  20
-161.692
  0
VERTEX
  8
MMIC_Trace
  10
454.38
  20
-161.548
  0
VERTEX
  8
MMIC_Trace
  10
453.4
  20
-161.5
  0
VERTEX
  8
MMIC_Trace
  10
372.4
  20
-161.5
  0
VERTEX
  8
MMIC_Trace
  10
371.42
  20
-161.548
  0
VERTEX
  8
MMIC_Trace
  10
370.449
  20
-161.692
  0
VERTEX
  8
MMIC_Trace
  10
369.497
  20
-161.931
  0
VERTEX
  8
MMIC_Trace
  10
368.573
  20
-162.261
  0
VERTEX
  8
MMIC_Trace
  10
367.686
  20
-162.681
  0
VERTEX
  8
MMIC_Trace
  10
366.844
  20
-163.185
  0
VERTEX
  8
MMIC_Trace
  10
366.056
  20
-163.77
  0
VERTEX
  8
MMIC_Trace
  10
365.329
  20
-164.429
  0
VERTEX
  8
MMIC_Trace
  10
364.67
  20
-165.156
  0
VERTEX
  8
MMIC_Trace
  10
364.085
  20
-165.944
  0
VERTEX
  8
MMIC_Trace
  10
363.581
  20
-166.786
  0
VERTEX
  8
MMIC_Trace
  10
363.161
  20
-167.673
  0
VERTEX
  8
MMIC_Trace
  10
362.831
  20
-168.597
  0
VERTEX
  8
MMIC_Trace
  10
362.592
  20
-169.549
  0
VERTEX
  8
MMIC_Trace
  10
362.448
  20
-170.52
  0
VERTEX
  8
MMIC_Trace
  10
362.4
  20
-171.5
  0
VERTEX
  8
MMIC_Trace
  10
362.4
  20
-226.5
  0
VERTEX
  8
MMIC_Trace
  10
362.448
  20
-227.48
  0
VERTEX
  8
MMIC_Trace
  10
362.592
  20
-228.451
  0
VERTEX
  8
MMIC_Trace
  10
362.831
  20
-229.403
  0
VERTEX
  8
MMIC_Trace
  10
363.161
  20
-230.327
  0
VERTEX
  8
MMIC_Trace
  10
363.581
  20
-231.214
  0
VERTEX
  8
MMIC_Trace
  10
364.085
  20
-232.056
  0
VERTEX
  8
MMIC_Trace
  10
364.67
  20
-232.844
  0
VERTEX
  8
MMIC_Trace
  10
365.329
  20
-233.571
  0
VERTEX
  8
MMIC_Trace
  10
366.056
  20
-234.23
  0
VERTEX
  8
MMIC_Trace
  10
366.844
  20
-234.815
  0
VERTEX
  8
MMIC_Trace
  10
367.686
  20
-235.319
  0
VERTEX
  8
MMIC_Trace
  10
368.573
  20
-235.739
  0
VERTEX
  8
MMIC_Trace
  10
369.497
  20
-236.069
  0
VERTEX
  8
MMIC_Trace
  10
370.449
  20
-236.308
  0
VERTEX
  8
MMIC_Trace
  10
371.42
  20
-236.452
  0
VERTEX
  8
MMIC_Trace
  10
372.4
  20
-236.5
  0
VERTEX
  8
MMIC_Trace
  10
382.4
  20
-236.5
  0
VERTEX
  8
MMIC_Trace
  10
382.4
  20
-245.5
  0
VERTEX
  8
MMIC_Trace
  10
370.1
  20
-245.5
  0
VERTEX
  8
MMIC_Trace
  10
369.12
  20
-245.548
  0
VERTEX
  8
MMIC_Trace
  10
368.15
  20
-245.692
  0
VERTEX
  8
MMIC_Trace
  10
367.198
  20
-245.93
  0
VERTEX
  8
MMIC_Trace
  10
366.274
  20
-246.261
  0
VERTEX
  8
MMIC_Trace
  10
365.387
  20
-246.68
  0
VERTEX
  8
MMIC_Trace
  10
364.545
  20
-247.185
  0
VERTEX
  8
MMIC_Trace
  10
363.757
  20
-247.769
  0
VERTEX
  8
MMIC_Trace
  10
363.029
  20
-248.428
  0
VERTEX
  8
MMIC_Trace
  10
362.37
  20
-249.156
  0
VERTEX
  8
MMIC_Trace
  10
361.786
  20
-249.944
  0
VERTEX
  8
MMIC_Trace
  10
361.281
  20
-250.786
  0
VERTEX
  8
MMIC_Trace
  10
360.862
  20
-251.673
  0
VERTEX
  8
MMIC_Trace
  10
360.531
  20
-252.597
  0
VERTEX
  8
MMIC_Trace
  10
360.293
  20
-253.549
  0
VERTEX
  8
MMIC_Trace
  10
360.149
  20
-254.519
  0
VERTEX
  8
MMIC_Trace
  10
360.1
  20
-255.5
  0
VERTEX
  8
MMIC_Trace
  10
360.1
  20
-305.1
  0
VERTEX
  8
MMIC_Trace
  10
360.149
  20
-306.08
  0
VERTEX
  8
MMIC_Trace
  10
360.293
  20
-307.05
  0
VERTEX
  8
MMIC_Trace
  10
360.531
  20
-308.002
  0
VERTEX
  8
MMIC_Trace
  10
360.862
  20
-308.926
  0
VERTEX
  8
MMIC_Trace
  10
361.281
  20
-309.813
  0
VERTEX
  8
MMIC_Trace
  10
361.786
  20
-310.655
  0
VERTEX
  8
MMIC_Trace
  10
362.37
  20
-311.443
  0
VERTEX
  8
MMIC_Trace
  10
363.029
  20
-312.171
  0
VERTEX
  8
MMIC_Trace
  10
363.757
  20
-312.83
  0
VERTEX
  8
MMIC_Trace
  10
364.545
  20
-313.414
  0
VERTEX
  8
MMIC_Trace
  10
365.387
  20
-313.919
  0
VERTEX
  8
MMIC_Trace
  10
366.274
  20
-314.338
  0
VERTEX
  8
MMIC_Trace
  10
367.198
  20
-314.669
  0
VERTEX
  8
MMIC_Trace
  10
368.15
  20
-314.907
  0
VERTEX
  8
MMIC_Trace
  10
369.12
  20
-315.051
  0
VERTEX
  8
MMIC_Trace
  10
370.1
  20
-315.1
  0
VERTEX
  8
MMIC_Trace
  10
442.7
  20
-315.1
  0
VERTEX
  8
MMIC_Trace
  10
443.68
  20
-315.051
  0
VERTEX
  8
MMIC_Trace
  10
444.65
  20
-314.907
  0
VERTEX
  8
MMIC_Trace
  10
445.602
  20
-314.669
  0
VERTEX
  8
MMIC_Trace
  10
446.526
  20
-314.338
  0
VERTEX
  8
MMIC_Trace
  10
447.413
  20
-313.919
  0
VERTEX
  8
MMIC_Trace
  10
448.255
  20
-313.414
  0
VERTEX
  8
MMIC_Trace
  10
449.043
  20
-312.83
  0
VERTEX
  8
MMIC_Trace
  10
449.771
  20
-312.171
  0
VERTEX
  8
MMIC_Trace
  10
450.43
  20
-311.443
  0
VERTEX
  8
MMIC_Trace
  10
451.014
  20
-310.655
  0
VERTEX
  8
MMIC_Trace
  10
451.519
  20
-309.813
  0
VERTEX
  8
MMIC_Trace
  10
451.938
  20
-308.926
  0
VERTEX
  8
MMIC_Trace
  10
452.269
  20
-308.002
  0
VERTEX
  8
MMIC_Trace
  10
452.507
  20
-307.05
  0
VERTEX
  8
MMIC_Trace
  10
452.651
  20
-306.08
  0
VERTEX
  8
MMIC_Trace
  10
452.7
  20
-305.1
  0
SEQEND
  0
POLYLINE
  8
MMIC_Trace
  70
1
  66
1
  0
VERTEX
  8
MMIC_Trace
  10
-460.169
  20
-132.403
  0
VERTEX
  8
MMIC_Trace
  10
-459.839
  20
-133.327
  0
VERTEX
  8
MMIC_Trace
  10
-459.419
  20
-134.214
  0
VERTEX
  8
MMIC_Trace
  10
-458.915
  20
-135.056
  0
VERTEX
  8
MMIC_Trace
  10
-458.33
  20
-135.844
  0
VERTEX
  8
MMIC_Trace
  10
-457.671
  20
-136.571
  0
VERTEX
  8
MMIC_Trace
  10
-456.944
  20
-137.23
  0
VERTEX
  8
MMIC_Trace
  10
-456.156
  20
-137.815
  0
VERTEX
  8
MMIC_Trace
  10
-455.314
  20
-138.319
  0
VERTEX
  8
MMIC_Trace
  10
-454.427
  20
-138.739
  0
VERTEX
  8
MMIC_Trace
  10
-453.503
  20
-139.069
  0
VERTEX
  8
MMIC_Trace
  10
-452.551
  20
-139.308
  0
VERTEX
  8
MMIC_Trace
  10
-451.58
  20
-139.452
  0
VERTEX
  8
MMIC_Trace
  10
-450.6
  20
-139.5
  0
VERTEX
  8
MMIC_Trace
  10
-369.6
  20
-139.5
  0
VERTEX
  8
MMIC_Trace
  10
-368.62
  20
-139.452
  0
VERTEX
  8
MMIC_Trace
  10
-367.649
  20
-139.308
  0
VERTEX
  8
MMIC_Trace
  10
-366.697
  20
-139.069
  0
VERTEX
  8
MMIC_Trace
  10
-365.773
  20
-138.739
  0
VERTEX
  8
MMIC_Trace
  10
-364.886
  20
-138.319
  0
VERTEX
  8
MMIC_Trace
  10
-364.044
  20
-137.815
  0
VERTEX
  8
MMIC_Trace
  10
-363.256
  20
-137.23
  0
VERTEX
  8
MMIC_Trace
  10
-362.529
  20
-136.571
  0
VERTEX
  8
MMIC_Trace
  10
-361.87
  20
-135.844
  0
VERTEX
  8
MMIC_Trace
  10
-361.285
  20
-135.056
  0
VERTEX
  8
MMIC_Trace
  10
-360.781
  20
-134.214
  0
VERTEX
  8
MMIC_Trace
  10
-360.361
  20
-133.327
  0
VERTEX
  8
MMIC_Trace
  10
-360.031
  20
-132.403
  0
VERTEX
  8
MMIC_Trace
  10
-359.792
  20
-131.451
  0
VERTEX
  8
MMIC_Trace
  10
-359.648
  20
-130.48
  0
VERTEX
  8
MMIC_Trace
  10
-359.6
  20
-129.5
  0
VERTEX
  8
MMIC_Trace
  10
-359.6
  20
50.5
  0
VERTEX
  8
MMIC_Trace
  10
-359.648
  20
51.48
  0
VERTEX
  8
MMIC_Trace
  10
-359.792
  20
52.451
  0
VERTEX
  8
MMIC_Trace
  10
-360.031
  20
53.403
  0
VERTEX
  8
MMIC_Trace
  10
-360.361
  20
54.327
  0
VERTEX
  8
MMIC_Trace
  10
-360.781
  20
55.214
  0
VERTEX
  8
MMIC_Trace
  10
-361.285
  20
56.056
  0
VERTEX
  8
MMIC_Trace
  10
-361.87
  20
56.844
  0
VERTEX
  8
MMIC_Trace
  10
-362.529
  20
57.571
  0
VERTEX
  8
MMIC_Trace
  10
-363.256
  20
58.23
  0
VERTEX
  8
MMIC_Trace
  10
-364.044
  20
58.815
  0
VERTEX
  8
MMIC_Trace
  10
-364.886
  20
59.319
  0
VERTEX
  8
MMIC_Trace
  10
-365.773
  20
59.739
  0
VERTEX
  8
MMIC_Trace
  10
-366.697
  20
60.069
  0
VERTEX
  8
MMIC_Trace
  10
-367.649
  20
60.308
  0
VERTEX
  8
MMIC_Trace
  10
-368.62
  20
60.452
  0
VERTEX
  8
MMIC_Trace
  10
-369.6
  20
60.5
  0
VERTEX
  8
MMIC_Trace
  10
-450.6
  20
60.5
  0
VERTEX
  8
MMIC_Trace
  10
-451.58
  20
60.452
  0
VERTEX
  8
MMIC_Trace
  10
-452.551
  20
60.308
  0
VERTEX
  8
MMIC_Trace
  10
-453.503
  20
60.069
  0
VERTEX
  8
MMIC_Trace
  10
-454.427
  20
59.739
  0
VERTEX
  8
MMIC_Trace
  10
-455.314
  20
59.319
  0
VERTEX
  8
MMIC_Trace
  10
-456.156
  20
58.815
  0
VERTEX
  8
MMIC_Trace
  10
-456.944
  20
58.23
  0
VERTEX
  8
MMIC_Trace
  10
-457.671
  20
57.571
  0
VERTEX
  8
MMIC_Trace
  10
-458.33
  20
56.844
  0
VERTEX
  8
MMIC_Trace
  10
-458.915
  20
56.056
  0
VERTEX
  8
MMIC_Trace
  10
-459.419
  20
55.214
  0
VERTEX
  8
MMIC_Trace
  10
-459.839
  20
54.327
  0
VERTEX
  8
MMIC_Trace
  10
-460.169
  20
53.403
  0
VERTEX
  8
MMIC_Trace
  10
-460.408
  20
52.451
  0
VERTEX
  8
MMIC_Trace
  10
-460.552
  20
51.48
  0
VERTEX
  8
MMIC_Trace
  10
-460.6
  20
50.5
  0
VERTEX
  8
MMIC_Trace
  10
-460.6
  20
-129.5
  0
VERTEX
  8
MMIC_Trace
  10
-460.552
  20
-130.48
  0
VERTEX
  8
MMIC_Trace
  10
-460.408
  20
-131.451
  0
SEQEND
  0
POLYLINE
  8
MMIC_Trace
  70
1
  66
1
  0
VERTEX
  8
MMIC_Trace
  10
-450.6
  20
-236.5
  0
VERTEX
  8
MMIC_Trace
  10
-449.9
  20
-236.5
  0
VERTEX
  8
MMIC_Trace
  10
-449.9
  20
-305.1
  0
VERTEX
  8
MMIC_Trace
  10
-449.851
  20
-306.08
  0
VERTEX
  8
MMIC_Trace
  10
-449.707
  20
-307.05
  0
VERTEX
  8
MMIC_Trace
  10
-449.469
  20
-308.002
  0
VERTEX
  8
MMIC_Trace
  10
-449.138
  20
-308.926
  0
VERTEX
  8
MMIC_Trace
  10
-448.719
  20
-309.813
  0
VERTEX
  8
MMIC_Trace
  10
-448.214
  20
-310.655
  0
VERTEX
  8
MMIC_Trace
  10
-447.63
  20
-311.443
  0
VERTEX
  8
MMIC_Trace
  10
-446.971
  20
-312.171
  0
VERTEX
  8
MMIC_Trace
  10
-446.243
  20
-312.83
  0
VERTEX
  8
MMIC_Trace
  10
-445.455
  20
-313.414
  0
VERTEX
  8
MMIC_Trace
  10
-444.613
  20
-313.919
  0
VERTEX
  8
MMIC_Trace
  10
-443.726
  20
-314.338
  0
VERTEX
  8
MMIC_Trace
  10
-442.802
  20
-314.669
  0
VERTEX
  8
MMIC_Trace
  10
-441.85
  20
-314.907
  0
VERTEX
  8
MMIC_Trace
  10
-440.88
  20
-315.051
  0
VERTEX
  8
MMIC_Trace
  10
-439.9
  20
-315.1
  0
VERTEX
  8
MMIC_Trace
  10
-367.3
  20
-315.1
  0
VERTEX
  8
MMIC_Trace
  10
-366.32
  20
-315.051
  0
VERTEX
  8
MMIC_Trace
  10
-365.35
  20
-314.907
  0
VERTEX
  8
MMIC_Trace
  10
-364.398
  20
-314.669
  0
VERTEX
  8
MMIC_Trace
  10
-363.474
  20
-314.338
  0
VERTEX
  8
MMIC_Trace
  10
-362.587
  20
-313.919
  0
VERTEX
  8
MMIC_Trace
  10
-361.745
  20
-313.414
  0
VERTEX
  8
MMIC_Trace
  10
-360.957
  20
-312.83
  0
VERTEX
  8
MMIC_Trace
  10
-360.229
  20
-312.171
  0
VERTEX
  8
MMIC_Trace
  10
-359.57
  20
-311.443
  0
VERTEX
  8
MMIC_Trace
  10
-358.986
  20
-310.655
  0
VERTEX
  8
MMIC_Trace
  10
-358.481
  20
-309.813
  0
VERTEX
  8
MMIC_Trace
  10
-358.062
  20
-308.926
  0
VERTEX
  8
MMIC_Trace
  10
-357.731
  20
-308.002
  0
VERTEX
  8
MMIC_Trace
  10
-357.493
  20
-307.05
  0
VERTEX
  8
MMIC_Trace
  10
-357.349
  20
-306.08
  0
VERTEX
  8
MMIC_Trace
  10
-357.3
  20
-305.1
  0
VERTEX
  8
MMIC_Trace
  10
-357.3
  20
-255.5
  0
VERTEX
  8
MMIC_Trace
  10
-357.349
  20
-254.519
  0
VERTEX
  8
MMIC_Trace
  10
-357.493
  20
-253.549
  0
VERTEX
  8
MMIC_Trace
  10
-357.731
  20
-252.597
  0
VERTEX
  8
MMIC_Trace
  10
-358.062
  20
-251.673
  0
VERTEX
  8
MMIC_Trace
  10
-358.481
  20
-250.786
  0
VERTEX
  8
MMIC_Trace
  10
-358.986
  20
-249.944
  0
VERTEX
  8
MMIC_Trace
  10
-359.57
  20
-249.156
  0
VERTEX
  8
MMIC_Trace
  10
-360.229
  20
-248.428
  0
VERTEX
  8
MMIC_Trace
  10
-360.957
  20
-247.769
  0
VERTEX
  8
MMIC_Trace
  10
-361.745
  20
-247.185
  0
VERTEX
  8
MMIC_Trace
  10
-362.587
  20
-246.68
  0
VERTEX
  8
MMIC_Trace
  10
-363.474
  20
-246.261
  0
VERTEX
  8
MMIC_Trace
  10
-364.398
  20
-245.93
  0
VERTEX
  8
MMIC_Trace
  10
-365.35
  20
-245.692
  0
VERTEX
  8
MMIC_Trace
  10
-366.32
  20
-245.548
  0
VERTEX
  8
MMIC_Trace
  10
-367.3
  20
-245.5
  0
VERTEX
  8
MMIC_Trace
  10
-379.6
  20
-245.5
  0
VERTEX
  8
MMIC_Trace
  10
-379.6
  20
-236.5
  0
VERTEX
  8
MMIC_Trace
  10
-369.6
  20
-236.5
  0
VERTEX
  8
MMIC_Trace
  10
-368.62
  20
-236.452
  0
VERTEX
  8
MMIC_Trace
  10
-367.649
  20
-236.308
  0
VERTEX
  8
MMIC_Trace
  10
-366.697
  20
-236.069
  0
VERTEX
  8
MMIC_Trace
  10
-365.773
  20
-235.739
  0
VERTEX
  8
MMIC_Trace
  10
-364.886
  20
-235.319
  0
VERTEX
  8
MMIC_Trace
  10
-364.044
  20
-234.815
  0
VERTEX
  8
MMIC_Trace
  10
-363.256
  20
-234.23
  0
VERTEX
  8
MMIC_Trace
  10
-362.529
  20
-233.571
  0
VERTEX
  8
MMIC_Trace
  10
-361.87
  20
-232.844
  0
VERTEX
  8
MMIC_Trace
  10
-361.285
  20
-232.056
  0
VERTEX
  8
MMIC_Trace
  10
-360.781
  20
-231.214
  0
VERTEX
  8
MMIC_Trace
  10
-360.361
  20
-230.327
  0
VERTEX
  8
MMIC_Trace
  10
-360.031
  20
-229.403
  0
VERTEX
  8
MMIC_Trace
  10
-359.792
  20
-228.451
  0
VERTEX
  8
MMIC_Trace
  10
-359.648
  20
-227.48
  0
VERTEX
  8
MMIC_Trace
  10
-359.6
  20
-226.5
  0
VERTEX
  8
MMIC_Trace
  10
-359.6
  20
-171.5
  0
VERTEX
  8
MMIC_Trace
  10
-359.648
  20
-170.52
  0
VERTEX
  8
MMIC_Trace
  10
-359.792
  20
-169.549
  0
VERTEX
  8
MMIC_Trace
  10
-360.031
  20
-168.597
  0
VERTEX
  8
MMIC_Trace
  10
-360.361
  20
-167.673
  0
VERTEX
  8
MMIC_Trace
  10
-360.781
  20
-166.786
  0
VERTEX
  8
MMIC_Trace
  10
-361.285
  20
-165.944
  0
VERTEX
  8
MMIC_Trace
  10
-361.87
  20
-165.156
  0
VERTEX
  8
MMIC_Trace
  10
-362.529
  20
-164.429
  0
VERTEX
  8
MMIC_Trace
  10
-363.256
  20
-163.77
  0
VERTEX
  8
MMIC_Trace
  10
-364.044
  20
-163.185
  0
VERTEX
  8
MMIC_Trace
  10
-364.886
  20
-162.681
  0
VERTEX
  8
MMIC_Trace
  10
-365.773
  20
-162.261
  0
VERTEX
  8
MMIC_Trace
  10
-366.697
  20
-161.931
  0
VERTEX
  8
MMIC_Trace
  10
-367.649
  20
-161.692
  0
VERTEX
  8
MMIC_Trace
  10
-368.62
  20
-161.548
  0
VERTEX
  8
MMIC_Trace
  10
-369.6
  20
-161.5
  0
VERTEX
  8
MMIC_Trace
  10
-450.6
  20
-161.5
  0
VERTEX
  8
MMIC_Trace
  10
-451.58
  20
-161.548
  0
VERTEX
  8
MMIC_Trace
  10
-452.551
  20
-161.692
  0
VERTEX
  8
MMIC_Trace
  10
-453.503
  20
-161.931
  0
VERTEX
  8
MMIC_Trace
  10
-454.427
  20
-162.261
  0
VERTEX
  8
MMIC_Trace
  10
-455.314
  20
-162.681
  0
VERTEX
  8
MMIC_Trace
  10
-456.156
  20
-163.185
  0
VERTEX
  8
MMIC_Trace
  10
-456.944
  20
-163.77
  0
VERTEX
  8
MMIC_Trace
  10
-457.671
  20
-164.429
  0
VERTEX
  8
MMIC_Trace
  10
-458.33
  20
-165.156
  0
VERTEX
  8
MMIC_Trace
  10
-458.915
  20
-165.944
  0
VERTEX
  8
MMIC_Trace
  10
-459.419
  20
-166.786
  0
VERTEX
  8
MMIC_Trace
  10
-459.839
  20
-167.673
  0
VERTEX
  8
MMIC_Trace
  10
-460.169
  20
-168.597
  0
VERTEX
  8
MMIC_Trace
  10
-460.408
  20
-169.549
  0
VERTEX
  8
MMIC_Trace
  10
-460.552
  20
-170.52
  0
VERTEX
  8
MMIC_Trace
  10
-460.6
  20
-171.5
  0
VERTEX
  8
MMIC_Trace
  10
-460.6
  20
-226.5
  0
VERTEX
  8
MMIC_Trace
  10
-460.552
  20
-227.48
  0
VERTEX
  8
MMIC_Trace
  10
-460.408
  20
-228.451
  0
VERTEX
  8
MMIC_Trace
  10
-460.169
  20
-229.403
  0
VERTEX
  8
MMIC_Trace
  10
-459.839
  20
-230.327
  0
VERTEX
  8
MMIC_Trace
  10
-459.419
  20
-231.214
  0
VERTEX
  8
MMIC_Trace
  10
-458.915
  20
-232.056
  0
VERTEX
  8
MMIC_Trace
  10
-458.33
  20
-232.844
  0
VERTEX
  8
MMIC_Trace
  10
-457.671
  20
-233.571
  0
VERTEX
  8
MMIC_Trace
  10
-456.944
  20
-234.23
  0
VERTEX
  8
MMIC_Trace
  10
-456.156
  20
-234.815
  0
VERTEX
  8
MMIC_Trace
  10
-455.314
  20
-235.319
  0
VERTEX
  8
MMIC_Trace
  10
-454.427
  20
-235.739
  0
VERTEX
  8
MMIC_Trace
  10
-453.503
  20
-236.069
  0
VERTEX
  8
MMIC_Trace
  10
-452.551
  20
-236.308
  0
VERTEX
  8
MMIC_Trace
  10
-451.58
  20
-236.452
  0
SEQEND
  0
POLYLINE
  8
MMIC_Trace
  70
1
  66
1
  0
VERTEX
  8
MMIC_Trace
  10
453.4
  20
157.5
  0
VERTEX
  8
MMIC_Trace
  10
452.7
  20
157.5
  0
VERTEX
  8
MMIC_Trace
  10
452.7
  20
226.1
  0
VERTEX
  8
MMIC_Trace
  10
452.651
  20
227.08
  0
VERTEX
  8
MMIC_Trace
  10
452.507
  20
228.05
  0
VERTEX
  8
MMIC_Trace
  10
452.269
  20
229.002
  0
VERTEX
  8
MMIC_Trace
  10
451.938
  20
229.926
  0
VERTEX
  8
MMIC_Trace
  10
451.519
  20
230.813
  0
VERTEX
  8
MMIC_Trace
  10
451.014
  20
231.655
  0
VERTEX
  8
MMIC_Trace
  10
450.43
  20
232.443
  0
VERTEX
  8
MMIC_Trace
  10
449.771
  20
233.171
  0
VERTEX
  8
MMIC_Trace
  10
449.043
  20
233.83
  0
VERTEX
  8
MMIC_Trace
  10
448.255
  20
234.414
  0
VERTEX
  8
MMIC_Trace
  10
447.413
  20
234.919
  0
VERTEX
  8
MMIC_Trace
  10
446.526
  20
235.338
  0
VERTEX
  8
MMIC_Trace
  10
445.602
  20
235.669
  0
VERTEX
  8
MMIC_Trace
  10
444.65
  20
235.907
  0
VERTEX
  8
MMIC_Trace
  10
443.68
  20
236.051
  0
VERTEX
  8
MMIC_Trace
  10
442.7
  20
236.1
  0
VERTEX
  8
MMIC_Trace
  10
370.1
  20
236.1
  0
VERTEX
  8
MMIC_Trace
  10
369.12
  20
236.051
  0
VERTEX
  8
MMIC_Trace
  10
368.15
  20
235.907
  0
VERTEX
  8
MMIC_Trace
  10
367.198
  20
235.669
  0
VERTEX
  8
MMIC_Trace
  10
366.274
  20
235.338
  0
VERTEX
  8
MMIC_Trace
  10
365.387
  20
234.919
  0
VERTEX
  8
MMIC_Trace
  10
364.545
  20
234.414
  0
VERTEX
  8
MMIC_Trace
  10
363.757
  20
233.83
  0
VERTEX
  8
MMIC_Trace
  10
363.029
  20
233.171
  0
VERTEX
  8
MMIC_Trace
  10
362.37
  20
232.443
  0
VERTEX
  8
MMIC_Trace
  10
361.786
  20
231.655
  0
VERTEX
  8
MMIC_Trace
  10
361.281
  20
230.813
  0
VERTEX
  8
MMIC_Trace
  10
360.862
  20
229.926
  0
VERTEX
  8
MMIC_Trace
  10
360.531
  20
229.002
  0
VERTEX
  8
MMIC_Trace
  10
360.293
  20
228.05
  0
VERTEX
  8
MMIC_Trace
  10
360.149
  20
227.08
  0
VERTEX
  8
MMIC_Trace
  10
360.1
  20
226.1
  0
VERTEX
  8
MMIC_Trace
  10
360.1
  20
176.5
  0
VERTEX
  8
MMIC_Trace
  10
360.149
  20
175.519
  0
VERTEX
  8
MMIC_Trace
  10
360.293
  20
174.549
  0
VERTEX
  8
MMIC_Trace
  10
360.531
  20
173.597
  0
VERTEX
  8
MMIC_Trace
  10
360.862
  20
172.673
  0
VERTEX
  8
MMIC_Trace
  10
361.281
  20
171.786
  0
VERTEX
  8
MMIC_Trace
  10
361.786
  20
170.944
  0
VERTEX
  8
MMIC_Trace
  10
362.37
  20
170.156
  0
VERTEX
  8
MMIC_Trace
  10
363.029
  20
169.428
  0
VERTEX
  8
MMIC_Trace
  10
363.757
  20
168.769
  0
VERTEX
  8
MMIC_Trace
  10
364.545
  20
168.185
  0
VERTEX
  8
MMIC_Trace
  10
365.387
  20
167.68
  0
VERTEX
  8
MMIC_Trace
  10
366.274
  20
167.261
  0
VERTEX
  8
MMIC_Trace
  10
367.198
  20
166.93
  0
VERTEX
  8
MMIC_Trace
  10
368.15
  20
166.692
  0
VERTEX
  8
MMIC_Trace
  10
369.12
  20
166.548
  0
VERTEX
  8
MMIC_Trace
  10
370.1
  20
166.5
  0
VERTEX
  8
MMIC_Trace
  10
382.4
  20
166.5
  0
VERTEX
  8
MMIC_Trace
  10
382.4
  20
157.5
  0
VERTEX
  8
MMIC_Trace
  10
372.4
  20
157.5
  0
VERTEX
  8
MMIC_Trace
  10
371.42
  20
157.452
  0
VERTEX
  8
MMIC_Trace
  10
370.449
  20
157.308
  0
VERTEX
  8
MMIC_Trace
  10
369.497
  20
157.069
  0
VERTEX
  8
MMIC_Trace
  10
368.573
  20
156.739
  0
VERTEX
  8
MMIC_Trace
  10
367.686
  20
156.319
  0
VERTEX
  8
MMIC_Trace
  10
366.844
  20
155.815
  0
VERTEX
  8
MMIC_Trace
  10
366.056
  20
155.23
  0
VERTEX
  8
MMIC_Trace
  10
365.329
  20
154.571
  0
VERTEX
  8
MMIC_Trace
  10
364.67
  20
153.844
  0
VERTEX
  8
MMIC_Trace
  10
364.085
  20
153.056
  0
VERTEX
  8
MMIC_Trace
  10
363.581
  20
152.214
  0
VERTEX
  8
MMIC_Trace
  10
363.161
  20
151.327
  0
VERTEX
  8
MMIC_Trace
  10
362.831
  20
150.403
  0
VERTEX
  8
MMIC_Trace
  10
362.592
  20
149.451
  0
VERTEX
  8
MMIC_Trace
  10
362.448
  20
148.48
  0
VERTEX
  8
MMIC_Trace
  10
362.4
  20
147.5
  0
VERTEX
  8
MMIC_Trace
  10
362.4
  20
92.5
  0
VERTEX
  8
MMIC_Trace
  10
362.448
  20
91.52
  0
VERTEX
  8
MMIC_Trace
  10
362.592
  20
90.549
  0
VERTEX
  8
MMIC_Trace
  10
362.831
  20
89.597
  0
VERTEX
  8
MMIC_Trace
  10
363.161
  20
88.673
  0
VERTEX
  8
MMIC_Trace
  10
363.581
  20
87.786
  0
VERTEX
  8
MMIC_Trace
  10
364.085
  20
86.944
  0
VERTEX
  8
MMIC_Trace
  10
364.67
  20
86.156
  0
VERTEX
  8
MMIC_Trace
  10
365.329
  20
85.429
  0
VERTEX
  8
MMIC_Trace
  10
366.056
  20
84.77
  0
VERTEX
  8
MMIC_Trace
  10
366.844
  20
84.185
  0
VERTEX
  8
MMIC_Trace
  10
367.686
  20
83.681
  0
VERTEX
  8
MMIC_Trace
  10
368.573
  20
83.261
  0
VERTEX
  8
MMIC_Trace
  10
369.497
  20
82.931
  0
VERTEX
  8
MMIC_Trace
  10
370.449
  20
82.692
  0
VERTEX
  8
MMIC_Trace
  10
371.42
  20
82.548
  0
VERTEX
  8
MMIC_Trace
  10
372.4
  20
82.5
  0
VERTEX
  8
MMIC_Trace
  10
453.4
  20
82.5
  0
VERTEX
  8
MMIC_Trace
  10
454.38
  20
82.548
  0
VERTEX
  8
MMIC_Trace
  10
455.351
  20
82.692
  0
VERTEX
  8
MMIC_Trace
  10
456.303
  20
82.931
  0
VERTEX
  8
MMIC_Trace
  10
457.227
  20
83.261
  0
VERTEX
  8
MMIC_Trace
  10
458.114
  20
83.681
  0
VERTEX
  8
MMIC_Trace
  10
458.956
  20
84.185
  0
VERTEX
  8
MMIC_Trace
  10
459.744
  20
84.77
  0
VERTEX
  8
MMIC_Trace
  10
460.471
  20
85.429
  0
VERTEX
  8
MMIC_Trace
  10
461.13
  20
86.156
  0
VERTEX
  8
MMIC_Trace
  10
461.715
  20
86.944
  0
VERTEX
  8
MMIC_Trace
  10
462.219
  20
87.786
  0
VERTEX
  8
MMIC_Trace
  10
462.639
  20
88.673
  0
VERTEX
  8
MMIC_Trace
  10
462.969
  20
89.597
  0
VERTEX
  8
MMIC_Trace
  10
463.208
  20
90.549
  0
VERTEX
  8
MMIC_Trace
  10
463.352
  20
91.52
  0
VERTEX
  8
MMIC_Trace
  10
463.4
  20
92.5
  0
VERTEX
  8
MMIC_Trace
  10
463.4
  20
147.5
  0
VERTEX
  8
MMIC_Trace
  10
463.352
  20
148.48
  0
VERTEX
  8
MMIC_Trace
  10
463.208
  20
149.451
  0
VERTEX
  8
MMIC_Trace
  10
462.969
  20
150.403
  0
VERTEX
  8
MMIC_Trace
  10
462.639
  20
151.327
  0
VERTEX
  8
MMIC_Trace
  10
462.219
  20
152.214
  0
VERTEX
  8
MMIC_Trace
  10
461.715
  20
153.056
  0
VERTEX
  8
MMIC_Trace
  10
461.13
  20
153.844
  0
VERTEX
  8
MMIC_Trace
  10
460.471
  20
154.571
  0
VERTEX
  8
MMIC_Trace
  10
459.744
  20
155.23
  0
VERTEX
  8
MMIC_Trace
  10
458.956
  20
155.815
  0
VERTEX
  8
MMIC_Trace
  10
458.114
  20
156.319
  0
VERTEX
  8
MMIC_Trace
  10
457.227
  20
156.739
  0
VERTEX
  8
MMIC_Trace
  10
456.303
  20
157.069
  0
VERTEX
  8
MMIC_Trace
  10
455.351
  20
157.308
  0
VERTEX
  8
MMIC_Trace
  10
454.38
  20
157.452
  0
SEQEND
  0
POLYLINE
  8
MMIC_Trace
  70
1
  66
1
  0
VERTEX
  8
MMIC_Trace
  10
362.831
  20
-132.403
  0
VERTEX
  8
MMIC_Trace
  10
363.161
  20
-133.327
  0
VERTEX
  8
MMIC_Trace
  10
363.581
  20
-134.214
  0
VERTEX
  8
MMIC_Trace
  10
364.085
  20
-135.056
  0
VERTEX
  8
MMIC_Trace
  10
364.67
  20
-135.844
  0
VERTEX
  8
MMIC_Trace
  10
365.329
  20
-136.571
  0
VERTEX
  8
MMIC_Trace
  10
366.056
  20
-137.23
  0
VERTEX
  8
MMIC_Trace
  10
366.844
  20
-137.815
  0
VERTEX
  8
MMIC_Trace
  10
367.686
  20
-138.319
  0
VERTEX
  8
MMIC_Trace
  10
368.573
  20
-138.739
  0
VERTEX
  8
MMIC_Trace
  10
369.497
  20
-139.069
  0
VERTEX
  8
MMIC_Trace
  10
370.449
  20
-139.308
  0
VERTEX
  8
MMIC_Trace
  10
371.42
  20
-139.452
  0
VERTEX
  8
MMIC_Trace
  10
372.4
  20
-139.5
  0
VERTEX
  8
MMIC_Trace
  10
453.4
  20
-139.5
  0
VERTEX
  8
MMIC_Trace
  10
454.38
  20
-139.452
  0
VERTEX
  8
MMIC_Trace
  10
455.351
  20
-139.308
  0
VERTEX
  8
MMIC_Trace
  10
456.303
  20
-139.069
  0
VERTEX
  8
MMIC_Trace
  10
457.227
  20
-138.739
  0
VERTEX
  8
MMIC_Trace
  10
458.114
  20
-138.319
  0
VERTEX
  8
MMIC_Trace
  10
458.956
  20
-137.815
  0
VERTEX
  8
MMIC_Trace
  10
459.744
  20
-137.23
  0
VERTEX
  8
MMIC_Trace
  10
460.471
  20
-136.571
  0
VERTEX
  8
MMIC_Trace
  10
461.13
  20
-135.844
  0
VERTEX
  8
MMIC_Trace
  10
461.715
  20
-135.056
  0
VERTEX
  8
MMIC_Trace
  10
462.219
  20
-134.214
  0
VERTEX
  8
MMIC_Trace
  10
462.639
  20
-133.327
  0
VERTEX
  8
MMIC_Trace
  10
462.969
  20
-132.403
  0
VERTEX
  8
MMIC_Trace
  10
463.208
  20
-131.451
  0
VERTEX
  8
MMIC_Trace
  10
463.352
  20
-130.48
  0
VERTEX
  8
MMIC_Trace
  10
463.4
  20
-129.5
  0
VERTEX
  8
MMIC_Trace
  10
463.4
  20
50.5
  0
VERTEX
  8
MMIC_Trace
  10
463.352
  20
51.48
  0
VERTEX
  8
MMIC_Trace
  10
463.208
  20
52.451
  0
VERTEX
  8
MMIC_Trace
  10
462.969
  20
53.403
  0
VERTEX
  8
MMIC_Trace
  10
462.639
  20
54.327
  0
VERTEX
  8
MMIC_Trace
  10
462.219
  20
55.214
  0
VERTEX
  8
MMIC_Trace
  10
461.715
  20
56.056
  0
VERTEX
  8
MMIC_Trace
  10
461.13
  20
56.844
  0
VERTEX
  8
MMIC_Trace
  10
460.471
  20
57.571
  0
VERTEX
  8
MMIC_Trace
  10
459.744
  20
58.23
  0
VERTEX
  8
MMIC_Trace
  10
458.956
  20
58.815
  0
VERTEX
  8
MMIC_Trace
  10
458.114
  20
59.319
  0
VERTEX
  8
MMIC_Trace
  10
457.227
  20
59.739
  0
VERTEX
  8
MMIC_Trace
  10
456.303
  20
60.069
  0
VERTEX
  8
MMIC_Trace
  10
455.351
  20
60.308
  0
VERTEX
  8
MMIC_Trace
  10
454.38
  20
60.452
  0
VERTEX
  8
MMIC_Trace
  10
453.4
  20
60.5
  0
VERTEX
  8
MMIC_Trace
  10
372.4
  20
60.5
  0
VERTEX
  8
MMIC_Trace
  10
371.42
  20
60.452
  0
VERTEX
  8
MMIC_Trace
  10
370.449
  20
60.308
  0
VERTEX
  8
MMIC_Trace
  10
369.497
  20
60.069
  0
VERTEX
  8
MMIC_Trace
  10
368.573
  20
59.739
  0
VERTEX
  8
MMIC_Trace
  10
367.686
  20
59.319
  0
VERTEX
  8
MMIC_Trace
  10
366.844
  20
58.815
  0
VERTEX
  8
MMIC_Trace
  10
366.056
  20
58.23
  0
VERTEX
  8
MMIC_Trace
  10
365.329
  20
57.571
  0
VERTEX
  8
MMIC_Trace
  10
364.67
  20
56.844
  0
VERTEX
  8
MMIC_Trace
  10
364.085
  20
56.056
  0
VERTEX
  8
MMIC_Trace
  10
363.581
  20
55.214
  0
VERTEX
  8
MMIC_Trace
  10
363.161
  20
54.327
  0
VERTEX
  8
MMIC_Trace
  10
362.831
  20
53.403
  0
VERTEX
  8
MMIC_Trace
  10
362.592
  20
52.451
  0
VERTEX
  8
MMIC_Trace
  10
362.448
  20
51.48
  0
VERTEX
  8
MMIC_Trace
  10
362.4
  20
50.5
  0
VERTEX
  8
MMIC_Trace
  10
362.4
  20
-129.5
  0
VERTEX
  8
MMIC_Trace
  10
362.448
  20
-130.48
  0
VERTEX
  8
MMIC_Trace
  10
362.592
  20
-131.451
  0
SEQEND
  0
POLYLINE
  8
MMIC_Trace
  70
1
  66
1
  0
VERTEX
  8
MMIC_Trace
  10
-449.9
  20
157.5
  0
VERTEX
  8
MMIC_Trace
  10
-450.6
  20
157.5
  0
VERTEX
  8
MMIC_Trace
  10
-451.58
  20
157.452
  0
VERTEX
  8
MMIC_Trace
  10
-452.551
  20
157.308
  0
VERTEX
  8
MMIC_Trace
  10
-453.503
  20
157.069
  0
VERTEX
  8
MMIC_Trace
  10
-454.427
  20
156.739
  0
VERTEX
  8
MMIC_Trace
  10
-455.314
  20
156.319
  0
VERTEX
  8
MMIC_Trace
  10
-456.156
  20
155.815
  0
VERTEX
  8
MMIC_Trace
  10
-456.944
  20
155.23
  0
VERTEX
  8
MMIC_Trace
  10
-457.671
  20
154.571
  0
VERTEX
  8
MMIC_Trace
  10
-458.33
  20
153.844
  0
VERTEX
  8
MMIC_Trace
  10
-458.915
  20
153.056
  0
VERTEX
  8
MMIC_Trace
  10
-459.419
  20
152.214
  0
VERTEX
  8
MMIC_Trace
  10
-459.839
  20
151.327
  0
VERTEX
  8
MMIC_Trace
  10
-460.169
  20
150.403
  0
VERTEX
  8
MMIC_Trace
  10
-460.408
  20
149.451
  0
VERTEX
  8
MMIC_Trace
  10
-460.552
  20
148.48
  0
VERTEX
  8
MMIC_Trace
  10
-460.6
  20
147.5
  0
VERTEX
  8
MMIC_Trace
  10
-460.6
  20
92.5
  0
VERTEX
  8
MMIC_Trace
  10
-460.552
  20
91.52
  0
VERTEX
  8
MMIC_Trace
  10
-460.408
  20
90.549
  0
VERTEX
  8
MMIC_Trace
  10
-460.169
  20
89.597
  0
VERTEX
  8
MMIC_Trace
  10
-459.839
  20
88.673
  0
VERTEX
  8
MMIC_Trace
  10
-459.419
  20
87.786
  0
VERTEX
  8
MMIC_Trace
  10
-458.915
  20
86.944
  0
VERTEX
  8
MMIC_Trace
  10
-458.33
  20
86.156
  0
VERTEX
  8
MMIC_Trace
  10
-457.671
  20
85.429
  0
VERTEX
  8
MMIC_Trace
  10
-456.944
  20
84.77
  0
VERTEX
  8
MMIC_Trace
  10
-456.156
  20
84.185
  0
VERTEX
  8
MMIC_Trace
  10
-455.314
  20
83.681
  0
VERTEX
  8
MMIC_Trace
  10
-454.427
  20
83.261
  0
VERTEX
  8
MMIC_Trace
  10
-453.503
  20
82.931
  0
VERTEX
  8
MMIC_Trace
  10
-452.551
  20
82.692
  0
VERTEX
  8
MMIC_Trace
  10
-451.58
  20
82.548
  0
VERTEX
  8
MMIC_Trace
  10
-450.6
  20
82.5
  0
VERTEX
  8
MMIC_Trace
  10
-369.6
  20
82.5
  0
VERTEX
  8
MMIC_Trace
  10
-368.62
  20
82.548
  0
VERTEX
  8
MMIC_Trace
  10
-367.649
  20
82.692
  0
VERTEX
  8
MMIC_Trace
  10
-366.697
  20
82.931
  0
VERTEX
  8
MMIC_Trace
  10
-365.773
  20
83.261
  0
VERTEX
  8
MMIC_Trace
  10
-364.886
  20
83.681
  0
VERTEX
  8
MMIC_Trace
  10
-364.044
  20
84.185
  0
VERTEX
  8
MMIC_Trace
  10
-363.256
  20
84.77
  0
VERTEX
  8
MMIC_Trace
  10
-362.529
  20
85.429
  0
VERTEX
  8
MMIC_Trace
  10
-361.87
  20
86.156
  0
VERTEX
  8
MMIC_Trace
  10
-361.285
  20
86.944
  0
VERTEX
  8
MMIC_Trace
  10
-360.781
  20
87.786
  0
VERTEX
  8
MMIC_Trace
  10
-360.361
  20
88.673
  0
VERTEX
  8
MMIC_Trace
  10
-360.031
  20
89.597
  0
VERTEX
  8
MMIC_Trace
  10
-359.792
  20
90.549
  0
VERTEX
  8
MMIC_Trace
  10
-359.648
  20
91.52
  0
VERTEX
  8
MMIC_Trace
  10
-359.6
  20
92.5
  0
VERTEX
  8
MMIC_Trace
  10
-359.6
  20
147.5
  0
VERTEX
  8
MMIC_Trace
  10
-359.648
  20
148.48
  0
VERTEX
  8
MMIC_Trace
  10
-359.792
  20
149.451
  0
VERTEX
  8
MMIC_Trace
  10
-360.031
  20
150.403
  0
VERTEX
  8
MMIC_Trace
  10
-360.361
  20
151.327
  0
VERTEX
  8
MMIC_Trace
  10
-360.781
  20
152.214
  0
VERTEX
  8
MMIC_Trace
  10
-361.285
  20
153.056
  0
VERTEX
  8
MMIC_Trace
  10
-361.87
  20
153.844
  0
VERTEX
  8
MMIC_Trace
  10
-362.529
  20
154.571
  0
VERTEX
  8
MMIC_Trace
  10
-363.256
  20
155.23
  0
VERTEX
  8
MMIC_Trace
  10
-364.044
  20
155.815
  0
VERTEX
  8
MMIC_Trace
  10
-364.886
  20
156.319
  0
VERTEX
  8
MMIC_Trace
  10
-365.773
  20
156.739
  0
VERTEX
  8
MMIC_Trace
  10
-366.697
  20
157.069
  0
VERTEX
  8
MMIC_Trace
  10
-367.649
  20
157.308
  0
VERTEX
  8
MMIC_Trace
  10
-368.62
  20
157.452
  0
VERTEX
  8
MMIC_Trace
  10
-369.6
  20
157.5
  0
VERTEX
  8
MMIC_Trace
  10
-379.6
  20
157.5
  0
VERTEX
  8
MMIC_Trace
  10
-379.6
  20
166.5
  0
VERTEX
  8
MMIC_Trace
  10
-367.3
  20
166.5
  0
VERTEX
  8
MMIC_Trace
  10
-366.32
  20
166.548
  0
VERTEX
  8
MMIC_Trace
  10
-365.35
  20
166.692
  0
VERTEX
  8
MMIC_Trace
  10
-364.398
  20
166.93
  0
VERTEX
  8
MMIC_Trace
  10
-363.474
  20
167.261
  0
VERTEX
  8
MMIC_Trace
  10
-362.587
  20
167.68
  0
VERTEX
  8
MMIC_Trace
  10
-361.745
  20
168.185
  0
VERTEX
  8
MMIC_Trace
  10
-360.957
  20
168.769
  0
VERTEX
  8
MMIC_Trace
  10
-360.229
  20
169.428
  0
VERTEX
  8
MMIC_Trace
  10
-359.57
  20
170.156
  0
VERTEX
  8
MMIC_Trace
  10
-358.986
  20
170.944
  0
VERTEX
  8
MMIC_Trace
  10
-358.481
  20
171.786
  0
VERTEX
  8
MMIC_Trace
  10
-358.062
  20
172.673
  0
VERTEX
  8
MMIC_Trace
  10
-357.731
  20
173.597
  0
VERTEX
  8
MMIC_Trace
  10
-357.493
  20
174.549
  0
VERTEX
  8
MMIC_Trace
  10
-357.349
  20
175.519
  0
VERTEX
  8
MMIC_Trace
  10
-357.3
  20
176.5
  0
VERTEX
  8
MMIC_Trace
  10
-357.3
  20
226.1
  0
VERTEX
  8
MMIC_Trace
  10
-357.349
  20
227.08
  0
VERTEX
  8
MMIC_Trace
  10
-357.493
  20
228.05
  0
VERTEX
  8
MMIC_Trace
  10
-357.731
  20
229.002
  0
VERTEX
  8
MMIC_Trace
  10
-358.062
  20
229.926
  0
VERTEX
  8
MMIC_Trace
  10
-358.481
  20
230.813
  0
VERTEX
  8
MMIC_Trace
  10
-358.986
  20
231.655
  0
VERTEX
  8
MMIC_Trace
  10
-359.57
  20
232.443
  0
VERTEX
  8
MMIC_Trace
  10
-360.229
  20
233.171
  0
VERTEX
  8
MMIC_Trace
  10
-360.957
  20
233.83
  0
VERTEX
  8
MMIC_Trace
  10
-361.745
  20
234.414
  0
VERTEX
  8
MMIC_Trace
  10
-362.587
  20
234.919
  0
VERTEX
  8
MMIC_Trace
  10
-363.474
  20
235.338
  0
VERTEX
  8
MMIC_Trace
  10
-364.398
  20
235.669
  0
VERTEX
  8
MMIC_Trace
  10
-365.35
  20
235.907
  0
VERTEX
  8
MMIC_Trace
  10
-366.32
  20
236.051
  0
VERTEX
  8
MMIC_Trace
  10
-367.3
  20
236.1
  0
VERTEX
  8
MMIC_Trace
  10
-439.9
  20
236.1
  0
VERTEX
  8
MMIC_Trace
  10
-440.88
  20
236.051
  0
VERTEX
  8
MMIC_Trace
  10
-441.85
  20
235.907
  0
VERTEX
  8
MMIC_Trace
  10
-442.802
  20
235.669
  0
VERTEX
  8
MMIC_Trace
  10
-443.726
  20
235.338
  0
VERTEX
  8
MMIC_Trace
  10
-444.613
  20
234.919
  0
VERTEX
  8
MMIC_Trace
  10
-445.455
  20
234.414
  0
VERTEX
  8
MMIC_Trace
  10
-446.243
  20
233.83
  0
VERTEX
  8
MMIC_Trace
  10
-446.971
  20
233.171
  0
VERTEX
  8
MMIC_Trace
  10
-447.63
  20
232.443
  0
VERTEX
  8
MMIC_Trace
  10
-448.214
  20
231.655
  0
VERTEX
  8
MMIC_Trace
  10
-448.719
  20
230.813
  0
VERTEX
  8
MMIC_Trace
  10
-449.138
  20
229.926
  0
VERTEX
  8
MMIC_Trace
  10
-449.469
  20
229.002
  0
VERTEX
  8
MMIC_Trace
  10
-449.707
  20
228.05
  0
VERTEX
  8
MMIC_Trace
  10
-449.851
  20
227.08
  0
VERTEX
  8
MMIC_Trace
  10
-449.9
  20
226.1
  0
SEQEND
  0
POLYLINE
  8
MMIC_BondPad
  70
1
  66
1
  0
VERTEX
  8
MMIC_BondPad
  10
-460.169
  20
-132.403
  0
VERTEX
  8
MMIC_BondPad
  10
-459.839
  20
-133.327
  0
VERTEX
  8
MMIC_BondPad
  10
-459.419
  20
-134.214
  0
VERTEX
  8
MMIC_BondPad
  10
-458.915
  20
-135.056
  0
VERTEX
  8
MMIC_BondPad
  10
-458.33
  20
-135.844
  0
VERTEX
  8
MMIC_BondPad
  10
-457.671
  20
-136.571
  0
VERTEX
  8
MMIC_BondPad
  10
-456.944
  20
-137.23
  0
VERTEX
  8
MMIC_BondPad
  10
-456.156
  20
-137.815
  0
VERTEX
  8
MMIC_BondPad
  10
-455.314
  20
-138.319
  0
VERTEX
  8
MMIC_BondPad
  10
-454.427
  20
-138.739
  0
VERTEX
  8
MMIC_BondPad
  10
-453.503
  20
-139.069
  0
VERTEX
  8
MMIC_BondPad
  10
-452.551
  20
-139.308
  0
VERTEX
  8
MMIC_BondPad
  10
-451.58
  20
-139.452
  0
VERTEX
  8
MMIC_BondPad
  10
-450.6
  20
-139.5
  0
VERTEX
  8
MMIC_BondPad
  10
-369.6
  20
-139.5
  0
VERTEX
  8
MMIC_BondPad
  10
-368.62
  20
-139.452
  0
VERTEX
  8
MMIC_BondPad
  10
-367.649
  20
-139.308
  0
VERTEX
  8
MMIC_BondPad
  10
-366.697
  20
-139.069
  0
VERTEX
  8
MMIC_BondPad
  10
-365.773
  20
-138.739
  0
VERTEX
  8
MMIC_BondPad
  10
-364.886
  20
-138.319
  0
VERTEX
  8
MMIC_BondPad
  10
-364.044
  20
-137.815
  0
VERTEX
  8
MMIC_BondPad
  10
-363.256
  20
-137.23
  0
VERTEX
  8
MMIC_BondPad
  10
-362.529
  20
-136.571
  0
VERTEX
  8
MMIC_BondPad
  10
-361.87
  20
-135.844
  0
VERTEX
  8
MMIC_BondPad
  10
-361.285
  20
-135.056
  0
VERTEX
  8
MMIC_BondPad
  10
-360.781
  20
-134.214
  0
VERTEX
  8
MMIC_BondPad
  10
-360.361
  20
-133.327
  0
VERTEX
  8
MMIC_BondPad
  10
-360.031
  20
-132.403
  0
VERTEX
  8
MMIC_BondPad
  10
-359.792
  20
-131.451
  0
VERTEX
  8
MMIC_BondPad
  10
-359.648
  20
-130.48
  0
VERTEX
  8
MMIC_BondPad
  10
-359.6
  20
-129.5
  0
VERTEX
  8
MMIC_BondPad
  10
-359.6
  20
50.5
  0
VERTEX
  8
MMIC_BondPad
  10
-359.648
  20
51.48
  0
VERTEX
  8
MMIC_BondPad
  10
-359.792
  20
52.451
  0
VERTEX
  8
MMIC_BondPad
  10
-360.031
  20
53.403
  0
VERTEX
  8
MMIC_BondPad
  10
-360.361
  20
54.327
  0
VERTEX
  8
MMIC_BondPad
  10
-360.781
  20
55.214
  0
VERTEX
  8
MMIC_BondPad
  10
-361.285
  20
56.056
  0
VERTEX
  8
MMIC_BondPad
  10
-361.87
  20
56.844
  0
VERTEX
  8
MMIC_BondPad
  10
-362.529
  20
57.571
  0
VERTEX
  8
MMIC_BondPad
  10
-363.256
  20
58.23
  0
VERTEX
  8
MMIC_BondPad
  10
-364.044
  20
58.815
  0
VERTEX
  8
MMIC_BondPad
  10
-364.886
  20
59.319
  0
VERTEX
  8
MMIC_BondPad
  10
-365.773
  20
59.739
  0
VERTEX
  8
MMIC_BondPad
  10
-366.697
  20
60.069
  0
VERTEX
  8
MMIC_BondPad
  10
-367.649
  20
60.308
  0
VERTEX
  8
MMIC_BondPad
  10
-368.62
  20
60.452
  0
VERTEX
  8
MMIC_BondPad
  10
-369.6
  20
60.5
  0
VERTEX
  8
MMIC_BondPad
  10
-450.6
  20
60.5
  0
VERTEX
  8
MMIC_BondPad
  10
-451.58
  20
60.452
  0
VERTEX
  8
MMIC_BondPad
  10
-452.551
  20
60.308
  0
VERTEX
  8
MMIC_BondPad
  10
-453.503
  20
60.069
  0
VERTEX
  8
MMIC_BondPad
  10
-454.427
  20
59.739
  0
VERTEX
  8
MMIC_BondPad
  10
-455.314
  20
59.319
  0
VERTEX
  8
MMIC_BondPad
  10
-456.156
  20
58.815
  0
VERTEX
  8
MMIC_BondPad
  10
-456.944
  20
58.23
  0
VERTEX
  8
MMIC_BondPad
  10
-457.671
  20
57.571
  0
VERTEX
  8
MMIC_BondPad
  10
-458.33
  20
56.844
  0
VERTEX
  8
MMIC_BondPad
  10
-458.915
  20
56.056
  0
VERTEX
  8
MMIC_BondPad
  10
-459.419
  20
55.214
  0
VERTEX
  8
MMIC_BondPad
  10
-459.839
  20
54.327
  0
VERTEX
  8
MMIC_BondPad
  10
-460.169
  20
53.403
  0
VERTEX
  8
MMIC_BondPad
  10
-460.408
  20
52.451
  0
VERTEX
  8
MMIC_BondPad
  10
-460.552
  20
51.48
  0
VERTEX
  8
MMIC_BondPad
  10
-460.6
  20
50.5
  0
VERTEX
  8
MMIC_BondPad
  10
-460.6
  20
-129.5
  0
VERTEX
  8
MMIC_BondPad
  10
-460.552
  20
-130.48
  0
VERTEX
  8
MMIC_BondPad
  10
-460.408
  20
-131.451
  0
SEQEND
  0
POLYLINE
  8
MMIC_BondPad
  70
1
  66
1
  0
VERTEX
  8
MMIC_BondPad
  10
-460.169
  20
-229.403
  0
VERTEX
  8
MMIC_BondPad
  10
-459.839
  20
-230.327
  0
VERTEX
  8
MMIC_BondPad
  10
-459.419
  20
-231.214
  0
VERTEX
  8
MMIC_BondPad
  10
-458.915
  20
-232.056
  0
VERTEX
  8
MMIC_BondPad
  10
-458.33
  20
-232.844
  0
VERTEX
  8
MMIC_BondPad
  10
-457.671
  20
-233.571
  0
VERTEX
  8
MMIC_BondPad
  10
-456.944
  20
-234.23
  0
VERTEX
  8
MMIC_BondPad
  10
-456.156
  20
-234.815
  0
VERTEX
  8
MMIC_BondPad
  10
-455.314
  20
-235.319
  0
VERTEX
  8
MMIC_BondPad
  10
-454.427
  20
-235.739
  0
VERTEX
  8
MMIC_BondPad
  10
-453.503
  20
-236.069
  0
VERTEX
  8
MMIC_BondPad
  10
-452.551
  20
-236.308
  0
VERTEX
  8
MMIC_BondPad
  10
-451.58
  20
-236.452
  0
VERTEX
  8
MMIC_BondPad
  10
-450.6
  20
-236.5
  0
VERTEX
  8
MMIC_BondPad
  10
-369.6
  20
-236.5
  0
VERTEX
  8
MMIC_BondPad
  10
-368.62
  20
-236.452
  0
VERTEX
  8
MMIC_BondPad
  10
-367.649
  20
-236.308
  0
VERTEX
  8
MMIC_BondPad
  10
-366.697
  20
-236.069
  0
VERTEX
  8
MMIC_BondPad
  10
-365.773
  20
-235.739
  0
VERTEX
  8
MMIC_BondPad
  10
-364.886
  20
-235.319
  0
VERTEX
  8
MMIC_BondPad
  10
-364.044
  20
-234.815
  0
VERTEX
  8
MMIC_BondPad
  10
-363.256
  20
-234.23
  0
VERTEX
  8
MMIC_BondPad
  10
-362.529
  20
-233.571
  0
VERTEX
  8
MMIC_BondPad
  10
-361.87
  20
-232.844
  0
VERTEX
  8
MMIC_BondPad
  10
-361.285
  20
-232.056
  0
VERTEX
  8
MMIC_BondPad
  10
-360.781
  20
-231.214
  0
VERTEX
  8
MMIC_BondPad
  10
-360.361
  20
-230.327
  0
VERTEX
  8
MMIC_BondPad
  10
-360.031
  20
-229.403
  0
VERTEX
  8
MMIC_BondPad
  10
-359.792
  20
-228.451
  0
VERTEX
  8
MMIC_BondPad
  10
-359.648
  20
-227.48
  0
VERTEX
  8
MMIC_BondPad
  10
-359.6
  20
-226.5
  0
VERTEX
  8
MMIC_BondPad
  10
-359.6
  20
-171.5
  0
VERTEX
  8
MMIC_BondPad
  10
-359.648
  20
-170.52
  0
VERTEX
  8
MMIC_BondPad
  10
-359.792
  20
-169.549
  0
VERTEX
  8
MMIC_BondPad
  10
-360.031
  20
-168.597
  0
VERTEX
  8
MMIC_BondPad
  10
-360.361
  20
-167.673
  0
VERTEX
  8
MMIC_BondPad
  10
-360.781
  20
-166.786
  0
VERTEX
  8
MMIC_BondPad
  10
-361.285
  20
-165.944
  0
VERTEX
  8
MMIC_BondPad
  10
-361.87
  20
-165.156
  0
VERTEX
  8
MMIC_BondPad
  10
-362.529
  20
-164.429
  0
VERTEX
  8
MMIC_BondPad
  10
-363.256
  20
-163.77
  0
VERTEX
  8
MMIC_BondPad
  10
-364.044
  20
-163.185
  0
VERTEX
  8
MMIC_BondPad
  10
-364.886
  20
-162.681
  0
VERTEX
  8
MMIC_BondPad
  10
-365.773
  20
-162.261
  0
VERTEX
  8
MMIC_BondPad
  10
-366.697
  20
-161.931
  0
VERTEX
  8
MMIC_BondPad
  10
-367.649
  20
-161.692
  0
VERTEX
  8
MMIC_BondPad
  10
-368.62
  20
-161.548
  0
VERTEX
  8
MMIC_BondPad
  10
-369.6
  20
-161.5
  0
VERTEX
  8
MMIC_BondPad
  10
-450.6
  20
-161.5
  0
VERTEX
  8
MMIC_BondPad
  10
-451.58
  20
-161.548
  0
VERTEX
  8
MMIC_BondPad
  10
-452.551
  20
-161.692
  0
VERTEX
  8
MMIC_BondPad
  10
-453.503
  20
-161.931
  0
VERTEX
  8
MMIC_BondPad
  10
-454.427
  20
-162.261
  0
VERTEX
  8
MMIC_BondPad
  10
-455.314
  20
-162.681
  0
VERTEX
  8
MMIC_BondPad
  10
-456.156
  20
-163.185
  0
VERTEX
  8
MMIC_BondPad
  10
-456.944
  20
-163.77
  0
VERTEX
  8
MMIC_BondPad
  10
-457.671
  20
-164.429
  0
VERTEX
  8
MMIC_BondPad
  10
-458.33
  20
-165.156
  0
VERTEX
  8
MMIC_BondPad
  10
-458.915
  20
-165.944
  0
VERTEX
  8
MMIC_BondPad
  10
-459.419
  20
-166.786
  0
VERTEX
  8
MMIC_BondPad
  10
-459.839
  20
-167.673
  0
VERTEX
  8
MMIC_BondPad
  10
-460.169
  20
-168.597
  0
VERTEX
  8
MMIC_BondPad
  10
-460.408
  20
-169.549
  0
VERTEX
  8
MMIC_BondPad
  10
-460.552
  20
-170.52
  0
VERTEX
  8
MMIC_BondPad
  10
-460.6
  20
-171.5
  0
VERTEX
  8
MMIC_BondPad
  10
-460.6
  20
-226.5
  0
VERTEX
  8
MMIC_BondPad
  10
-460.552
  20
-227.48
  0
VERTEX
  8
MMIC_BondPad
  10
-460.408
  20
-228.451
  0
SEQEND
  0
POLYLINE
  8
MMIC_BondPad
  70
1
  66
1
  0
VERTEX
  8
MMIC_BondPad
  10
362.831
  20
89.597
  0
VERTEX
  8
MMIC_BondPad
  10
363.161
  20
88.673
  0
VERTEX
  8
MMIC_BondPad
  10
363.581
  20
87.786
  0
VERTEX
  8
MMIC_BondPad
  10
364.085
  20
86.944
  0
VERTEX
  8
MMIC_BondPad
  10
364.67
  20
86.156
  0
VERTEX
  8
MMIC_BondPad
  10
365.329
  20
85.429
  0
VERTEX
  8
MMIC_BondPad
  10
366.056
  20
84.77
  0
VERTEX
  8
MMIC_BondPad
  10
366.844
  20
84.185
  0
VERTEX
  8
MMIC_BondPad
  10
367.686
  20
83.681
  0
VERTEX
  8
MMIC_BondPad
  10
368.573
  20
83.261
  0
VERTEX
  8
MMIC_BondPad
  10
369.497
  20
82.931
  0
VERTEX
  8
MMIC_BondPad
  10
370.449
  20
82.692
  0
VERTEX
  8
MMIC_BondPad
  10
371.42
  20
82.548
  0
VERTEX
  8
MMIC_BondPad
  10
372.4
  20
82.5
  0
VERTEX
  8
MMIC_BondPad
  10
453.4
  20
82.5
  0
VERTEX
  8
MMIC_BondPad
  10
454.38
  20
82.548
  0
VERTEX
  8
MMIC_BondPad
  10
455.351
  20
82.692
  0
VERTEX
  8
MMIC_BondPad
  10
456.303
  20
82.931
  0
VERTEX
  8
MMIC_BondPad
  10
457.227
  20
83.261
  0
VERTEX
  8
MMIC_BondPad
  10
458.114
  20
83.681
  0
VERTEX
  8
MMIC_BondPad
  10
458.956
  20
84.185
  0
VERTEX
  8
MMIC_BondPad
  10
459.744
  20
84.77
  0
VERTEX
  8
MMIC_BondPad
  10
460.471
  20
85.429
  0
VERTEX
  8
MMIC_BondPad
  10
461.13
  20
86.156
  0
VERTEX
  8
MMIC_BondPad
  10
461.715
  20
86.944
  0
VERTEX
  8
MMIC_BondPad
  10
462.219
  20
87.786
  0
VERTEX
  8
MMIC_BondPad
  10
462.639
  20
88.673
  0
VERTEX
  8
MMIC_BondPad
  10
462.969
  20
89.597
  0
VERTEX
  8
MMIC_BondPad
  10
463.208
  20
90.549
  0
VERTEX
  8
MMIC_BondPad
  10
463.352
  20
91.52
  0
VERTEX
  8
MMIC_BondPad
  10
463.4
  20
92.5
  0
VERTEX
  8
MMIC_BondPad
  10
463.4
  20
147.5
  0
VERTEX
  8
MMIC_BondPad
  10
463.352
  20
148.48
  0
VERTEX
  8
MMIC_BondPad
  10
463.208
  20
149.451
  0
VERTEX
  8
MMIC_BondPad
  10
462.969
  20
150.403
  0
VERTEX
  8
MMIC_BondPad
  10
462.639
  20
151.327
  0
VERTEX
  8
MMIC_BondPad
  10
462.219
  20
152.214
  0
VERTEX
  8
MMIC_BondPad
  10
461.715
  20
153.056
  0
VERTEX
  8
MMIC_BondPad
  10
461.13
  20
153.844
  0
VERTEX
  8
MMIC_BondPad
  10
460.471
  20
154.571
  0
VERTEX
  8
MMIC_BondPad
  10
459.744
  20
155.23
  0
VERTEX
  8
MMIC_BondPad
  10
458.956
  20
155.815
  0
VERTEX
  8
MMIC_BondPad
  10
458.114
  20
156.319
  0
VERTEX
  8
MMIC_BondPad
  10
457.227
  20
156.739
  0
VERTEX
  8
MMIC_BondPad
  10
456.303
  20
157.069
  0
VERTEX
  8
MMIC_BondPad
  10
455.351
  20
157.308
  0
VERTEX
  8
MMIC_BondPad
  10
454.38
  20
157.452
  0
VERTEX
  8
MMIC_BondPad
  10
453.4
  20
157.5
  0
VERTEX
  8
MMIC_BondPad
  10
372.4
  20
157.5
  0
VERTEX
  8
MMIC_BondPad
  10
371.42
  20
157.452
  0
VERTEX
  8
MMIC_BondPad
  10
370.449
  20
157.308
  0
VERTEX
  8
MMIC_BondPad
  10
369.497
  20
157.069
  0
VERTEX
  8
MMIC_BondPad
  10
368.573
  20
156.739
  0
VERTEX
  8
MMIC_BondPad
  10
367.686
  20
156.319
  0
VERTEX
  8
MMIC_BondPad
  10
366.844
  20
155.815
  0
VERTEX
  8
MMIC_BondPad
  10
366.056
  20
155.23
  0
VERTEX
  8
MMIC_BondPad
  10
365.329
  20
154.571
  0
VERTEX
  8
MMIC_BondPad
  10
364.67
  20
153.844
  0
VERTEX
  8
MMIC_BondPad
  10
364.085
  20
153.056
  0
VERTEX
  8
MMIC_BondPad
  10
363.581
  20
152.214
  0
VERTEX
  8
MMIC_BondPad
  10
363.161
  20
151.327
  0
VERTEX
  8
MMIC_BondPad
  10
362.831
  20
150.403
  0
VERTEX
  8
MMIC_BondPad
  10
362.592
  20
149.451
  0
VERTEX
  8
MMIC_BondPad
  10
362.448
  20
148.48
  0
VERTEX
  8
MMIC_BondPad
  10
362.4
  20
147.5
  0
VERTEX
  8
MMIC_BondPad
  10
362.4
  20
92.5
  0
VERTEX
  8
MMIC_BondPad
  10
362.448
  20
91.52
  0
VERTEX
  8
MMIC_BondPad
  10
362.592
  20
90.549
  0
SEQEND
  0
POLYLINE
  8
MMIC_BondPad
  70
1
  66
1
  0
VERTEX
  8
MMIC_BondPad
  10
362.831
  20
-132.403
  0
VERTEX
  8
MMIC_BondPad
  10
363.161
  20
-133.327
  0
VERTEX
  8
MMIC_BondPad
  10
363.581
  20
-134.214
  0
VERTEX
  8
MMIC_BondPad
  10
364.085
  20
-135.056
  0
VERTEX
  8
MMIC_BondPad
  10
364.67
  20
-135.844
  0
VERTEX
  8
MMIC_BondPad
  10
365.329
  20
-136.571
  0
VERTEX
  8
MMIC_BondPad
  10
366.056
  20
-137.23
  0
VERTEX
  8
MMIC_BondPad
  10
366.844
  20
-137.815
  0
VERTEX
  8
MMIC_BondPad
  10
367.686
  20
-138.319
  0
VERTEX
  8
MMIC_BondPad
  10
368.573
  20
-138.739
  0
VERTEX
  8
MMIC_BondPad
  10
369.497
  20
-139.069
  0
VERTEX
  8
MMIC_BondPad
  10
370.449
  20
-139.308
  0
VERTEX
  8
MMIC_BondPad
  10
371.42
  20
-139.452
  0
VERTEX
  8
MMIC_BondPad
  10
372.4
  20
-139.5
  0
VERTEX
  8
MMIC_BondPad
  10
453.4
  20
-139.5
  0
VERTEX
  8
MMIC_BondPad
  10
454.38
  20
-139.452
  0
VERTEX
  8
MMIC_BondPad
  10
455.351
  20
-139.308
  0
VERTEX
  8
MMIC_BondPad
  10
456.303
  20
-139.069
  0
VERTEX
  8
MMIC_BondPad
  10
457.227
  20
-138.739
  0
VERTEX
  8
MMIC_BondPad
  10
458.114
  20
-138.319
  0
VERTEX
  8
MMIC_BondPad
  10
458.956
  20
-137.815
  0
VERTEX
  8
MMIC_BondPad
  10
459.744
  20
-137.23
  0
VERTEX
  8
MMIC_BondPad
  10
460.471
  20
-136.571
  0
VERTEX
  8
MMIC_BondPad
  10
461.13
  20
-135.844
  0
VERTEX
  8
MMIC_BondPad
  10
461.715
  20
-135.056
  0
VERTEX
  8
MMIC_BondPad
  10
462.219
  20
-134.214
  0
VERTEX
  8
MMIC_BondPad
  10
462.639
  20
-133.327
  0
VERTEX
  8
MMIC_BondPad
  10
462.969
  20
-132.403
  0
VERTEX
  8
MMIC_BondPad
  10
463.208
  20
-131.451
  0
VERTEX
  8
MMIC_BondPad
  10
463.352
  20
-130.48
  0
VERTEX
  8
MMIC_BondPad
  10
463.4
  20
-129.5
  0
VERTEX
  8
MMIC_BondPad
  10
463.4
  20
50.5
  0
VERTEX
  8
MMIC_BondPad
  10
463.352
  20
51.48
  0
VERTEX
  8
MMIC_BondPad
  10
463.208
  20
52.451
  0
VERTEX
  8
MMIC_BondPad
  10
462.969
  20
53.403
  0
VERTEX
  8
MMIC_BondPad
  10
462.639
  20
54.327
  0
VERTEX
  8
MMIC_BondPad
  10
462.219
  20
55.214
  0
VERTEX
  8
MMIC_BondPad
  10
461.715
  20
56.056
  0
VERTEX
  8
MMIC_BondPad
  10
461.13
  20
56.844
  0
VERTEX
  8
MMIC_BondPad
  10
460.471
  20
57.571
  0
VERTEX
  8
MMIC_BondPad
  10
459.744
  20
58.23
  0
VERTEX
  8
MMIC_BondPad
  10
458.956
  20
58.815
  0
VERTEX
  8
MMIC_BondPad
  10
458.114
  20
59.319
  0
VERTEX
  8
MMIC_BondPad
  10
457.227
  20
59.739
  0
VERTEX
  8
MMIC_BondPad
  10
456.303
  20
60.069
  0
VERTEX
  8
MMIC_BondPad
  10
455.351
  20
60.308
  0
VERTEX
  8
MMIC_BondPad
  10
454.38
  20
60.452
  0
VERTEX
  8
MMIC_BondPad
  10
453.4
  20
60.5
  0
VERTEX
  8
MMIC_BondPad
  10
372.4
  20
60.5
  0
VERTEX
  8
MMIC_BondPad
  10
371.42
  20
60.452
  0
VERTEX
  8
MMIC_BondPad
  10
370.449
  20
60.308
  0
VERTEX
  8
MMIC_BondPad
  10
369.497
  20
60.069
  0
VERTEX
  8
MMIC_BondPad
  10
368.573
  20
59.739
  0
VERTEX
  8
MMIC_BondPad
  10
367.686
  20
59.319
  0
VERTEX
  8
MMIC_BondPad
  10
366.844
  20
58.815
  0
VERTEX
  8
MMIC_BondPad
  10
366.056
  20
58.23
  0
VERTEX
  8
MMIC_BondPad
  10
365.329
  20
57.571
  0
VERTEX
  8
MMIC_BondPad
  10
364.67
  20
56.844
  0
VERTEX
  8
MMIC_BondPad
  10
364.085
  20
56.056
  0
VERTEX
  8
MMIC_BondPad
  10
363.581
  20
55.214
  0
VERTEX
  8
MMIC_BondPad
  10
363.161
  20
54.327
  0
VERTEX
  8
MMIC_BondPad
  10
362.831
  20
53.403
  0
VERTEX
  8
MMIC_BondPad
  10
362.592
  20
52.451
  0
VERTEX
  8
MMIC_BondPad
  10
362.448
  20
51.48
  0
VERTEX
  8
MMIC_BondPad
  10
362.4
  20
50.5
  0
VERTEX
  8
MMIC_BondPad
  10
362.4
  20
-129.5
  0
VERTEX
  8
MMIC_BondPad
  10
362.448
  20
-130.48
  0
VERTEX
  8
MMIC_BondPad
  10
362.592
  20
-131.451
  0
SEQEND
  0
POLYLINE
  8
MMIC_BondPad
  70
1
  66
1
  0
VERTEX
  8
MMIC_BondPad
  10
362.831
  20
-229.403
  0
VERTEX
  8
MMIC_BondPad
  10
363.161
  20
-230.327
  0
VERTEX
  8
MMIC_BondPad
  10
363.581
  20
-231.214
  0
VERTEX
  8
MMIC_BondPad
  10
364.085
  20
-232.056
  0
VERTEX
  8
MMIC_BondPad
  10
364.67
  20
-232.844
  0
VERTEX
  8
MMIC_BondPad
  10
365.329
  20
-233.571
  0
VERTEX
  8
MMIC_BondPad
  10
366.056
  20
-234.23
  0
VERTEX
  8
MMIC_BondPad
  10
366.844
  20
-234.815
  0
VERTEX
  8
MMIC_BondPad
  10
367.686
  20
-235.319
  0
VERTEX
  8
MMIC_BondPad
  10
368.573
  20
-235.739
  0
VERTEX
  8
MMIC_BondPad
  10
369.497
  20
-236.069
  0
VERTEX
  8
MMIC_BondPad
  10
370.449
  20
-236.308
  0
VERTEX
  8
MMIC_BondPad
  10
371.42
  20
-236.452
  0
VERTEX
  8
MMIC_BondPad
  10
372.4
  20
-236.5
  0
VERTEX
  8
MMIC_BondPad
  10
453.4
  20
-236.5
  0
VERTEX
  8
MMIC_BondPad
  10
454.38
  20
-236.452
  0
VERTEX
  8
MMIC_BondPad
  10
455.351
  20
-236.308
  0
VERTEX
  8
MMIC_BondPad
  10
456.303
  20
-236.069
  0
VERTEX
  8
MMIC_BondPad
  10
457.227
  20
-235.739
  0
VERTEX
  8
MMIC_BondPad
  10
458.114
  20
-235.319
  0
VERTEX
  8
MMIC_BondPad
  10
458.956
  20
-234.815
  0
VERTEX
  8
MMIC_BondPad
  10
459.744
  20
-234.23
  0
VERTEX
  8
MMIC_BondPad
  10
460.471
  20
-233.571
  0
VERTEX
  8
MMIC_BondPad
  10
461.13
  20
-232.844
  0
VERTEX
  8
MMIC_BondPad
  10
461.715
  20
-232.056
  0
VERTEX
  8
MMIC_BondPad
  10
462.219
  20
-231.214
  0
VERTEX
  8
MMIC_BondPad
  10
462.639
  20
-230.327
  0
VERTEX
  8
MMIC_BondPad
  10
462.969
  20
-229.403
  0
VERTEX
  8
MMIC_BondPad
  10
463.208
  20
-228.451
  0
VERTEX
  8
MMIC_BondPad
  10
463.352
  20
-227.48
  0
VERTEX
  8
MMIC_BondPad
  10
463.4
  20
-226.5
  0
VERTEX
  8
MMIC_BondPad
  10
463.4
  20
-171.5
  0
VERTEX
  8
MMIC_BondPad
  10
463.352
  20
-170.52
  0
VERTEX
  8
MMIC_BondPad
  10
463.208
  20
-169.549
  0
VERTEX
  8
MMIC_BondPad
  10
462.969
  20
-168.597
  0
VERTEX
  8
MMIC_BondPad
  10
462.639
  20
-167.673
  0
VERTEX
  8
MMIC_BondPad
  10
462.219
  20
-166.786
  0
VERTEX
  8
MMIC_BondPad
  10
461.715
  20
-165.944
  0
VERTEX
  8
MMIC_BondPad
  10
461.13
  20
-165.156
  0
VERTEX
  8
MMIC_BondPad
  10
460.471
  20
-164.429
  0
VERTEX
  8
MMIC_BondPad
  10
459.744
  20
-163.77
  0
VERTEX
  8
MMIC_BondPad
  10
458.956
  20
-163.185
  0
VERTEX
  8
MMIC_BondPad
  10
458.114
  20
-162.681
  0
VERTEX
  8
MMIC_BondPad
  10
457.227
  20
-162.261
  0
VERTEX
  8
MMIC_BondPad
  10
456.303
  20
-161.931
  0
VERTEX
  8
MMIC_BondPad
  10
455.351
  20
-161.692
  0
VERTEX
  8
MMIC_BondPad
  10
454.38
  20
-161.548
  0
VERTEX
  8
MMIC_BondPad
  10
453.4
  20
-161.5
  0
VERTEX
  8
MMIC_BondPad
  10
372.4
  20
-161.5
  0
VERTEX
  8
MMIC_BondPad
  10
371.42
  20
-161.548
  0
VERTEX
  8
MMIC_BondPad
  10
370.449
  20
-161.692
  0
VERTEX
  8
MMIC_BondPad
  10
369.497
  20
-161.931
  0
VERTEX
  8
MMIC_BondPad
  10
368.573
  20
-162.261
  0
VERTEX
  8
MMIC_BondPad
  10
367.686
  20
-162.681
  0
VERTEX
  8
MMIC_BondPad
  10
366.844
  20
-163.185
  0
VERTEX
  8
MMIC_BondPad
  10
366.056
  20
-163.77
  0
VERTEX
  8
MMIC_BondPad
  10
365.329
  20
-164.429
  0
VERTEX
  8
MMIC_BondPad
  10
364.67
  20
-165.156
  0
VERTEX
  8
MMIC_BondPad
  10
364.085
  20
-165.944
  0
VERTEX
  8
MMIC_BondPad
  10
363.581
  20
-166.786
  0
VERTEX
  8
MMIC_BondPad
  10
363.161
  20
-167.673
  0
VERTEX
  8
MMIC_BondPad
  10
362.831
  20
-168.597
  0
VERTEX
  8
MMIC_BondPad
  10
362.592
  20
-169.549
  0
VERTEX
  8
MMIC_BondPad
  10
362.448
  20
-170.52
  0
VERTEX
  8
MMIC_BondPad
  10
362.4
  20
-171.5
  0
VERTEX
  8
MMIC_BondPad
  10
362.4
  20
-226.5
  0
VERTEX
  8
MMIC_BondPad
  10
362.448
  20
-227.48
  0
VERTEX
  8
MMIC_BondPad
  10
362.592
  20
-228.451
  0
SEQEND
  0
POLYLINE
  8
MMIC_BondPad
  70
1
  66
1
  0
VERTEX
  8
MMIC_BondPad
  10
-460.169
  20
89.597
  0
VERTEX
  8
MMIC_BondPad
  10
-459.839
  20
88.673
  0
VERTEX
  8
MMIC_BondPad
  10
-459.419
  20
87.786
  0
VERTEX
  8
MMIC_BondPad
  10
-458.915
  20
86.944
  0
VERTEX
  8
MMIC_BondPad
  10
-458.33
  20
86.156
  0
VERTEX
  8
MMIC_BondPad
  10
-457.671
  20
85.429
  0
VERTEX
  8
MMIC_BondPad
  10
-456.944
  20
84.77
  0
VERTEX
  8
MMIC_BondPad
  10
-456.156
  20
84.185
  0
VERTEX
  8
MMIC_BondPad
  10
-455.314
  20
83.681
  0
VERTEX
  8
MMIC_BondPad
  10
-454.427
  20
83.261
  0
VERTEX
  8
MMIC_BondPad
  10
-453.503
  20
82.931
  0
VERTEX
  8
MMIC_BondPad
  10
-452.551
  20
82.692
  0
VERTEX
  8
MMIC_BondPad
  10
-451.58
  20
82.548
  0
VERTEX
  8
MMIC_BondPad
  10
-450.6
  20
82.5
  0
VERTEX
  8
MMIC_BondPad
  10
-369.6
  20
82.5
  0
VERTEX
  8
MMIC_BondPad
  10
-368.62
  20
82.548
  0
VERTEX
  8
MMIC_BondPad
  10
-367.649
  20
82.692
  0
VERTEX
  8
MMIC_BondPad
  10
-366.697
  20
82.931
  0
VERTEX
  8
MMIC_BondPad
  10
-365.773
  20
83.261
  0
VERTEX
  8
MMIC_BondPad
  10
-364.886
  20
83.681
  0
VERTEX
  8
MMIC_BondPad
  10
-364.044
  20
84.185
  0
VERTEX
  8
MMIC_BondPad
  10
-363.256
  20
84.77
  0
VERTEX
  8
MMIC_BondPad
  10
-362.529
  20
85.429
  0
VERTEX
  8
MMIC_BondPad
  10
-361.87
  20
86.156
  0
VERTEX
  8
MMIC_BondPad
  10
-361.285
  20
86.944
  0
VERTEX
  8
MMIC_BondPad
  10
-360.781
  20
87.786
  0
VERTEX
  8
MMIC_BondPad
  10
-360.361
  20
88.673
  0
VERTEX
  8
MMIC_BondPad
  10
-360.031
  20
89.597
  0
VERTEX
  8
MMIC_BondPad
  10
-359.792
  20
90.549
  0
VERTEX
  8
MMIC_BondPad
  10
-359.648
  20
91.52
  0
VERTEX
  8
MMIC_BondPad
  10
-359.6
  20
92.5
  0
VERTEX
  8
MMIC_BondPad
  10
-359.6
  20
147.5
  0
VERTEX
  8
MMIC_BondPad
  10
-359.648
  20
148.48
  0
VERTEX
  8
MMIC_BondPad
  10
-359.792
  20
149.451
  0
VERTEX
  8
MMIC_BondPad
  10
-360.031
  20
150.403
  0
VERTEX
  8
MMIC_BondPad
  10
-360.361
  20
151.327
  0
VERTEX
  8
MMIC_BondPad
  10
-360.781
  20
152.214
  0
VERTEX
  8
MMIC_BondPad
  10
-361.285
  20
153.056
  0
VERTEX
  8
MMIC_BondPad
  10
-361.87
  20
153.844
  0
VERTEX
  8
MMIC_BondPad
  10
-362.529
  20
154.571
  0
VERTEX
  8
MMIC_BondPad
  10
-363.256
  20
155.23
  0
VERTEX
  8
MMIC_BondPad
  10
-364.044
  20
155.815
  0
VERTEX
  8
MMIC_BondPad
  10
-364.886
  20
156.319
  0
VERTEX
  8
MMIC_BondPad
  10
-365.773
  20
156.739
  0
VERTEX
  8
MMIC_BondPad
  10
-366.697
  20
157.069
  0
VERTEX
  8
MMIC_BondPad
  10
-367.649
  20
157.308
  0
VERTEX
  8
MMIC_BondPad
  10
-368.62
  20
157.452
  0
VERTEX
  8
MMIC_BondPad
  10
-369.6
  20
157.5
  0
VERTEX
  8
MMIC_BondPad
  10
-450.6
  20
157.5
  0
VERTEX
  8
MMIC_BondPad
  10
-451.58
  20
157.452
  0
VERTEX
  8
MMIC_BondPad
  10
-452.551
  20
157.308
  0
VERTEX
  8
MMIC_BondPad
  10
-453.503
  20
157.069
  0
VERTEX
  8
MMIC_BondPad
  10
-454.427
  20
156.739
  0
VERTEX
  8
MMIC_BondPad
  10
-455.314
  20
156.319
  0
VERTEX
  8
MMIC_BondPad
  10
-456.156
  20
155.815
  0
VERTEX
  8
MMIC_BondPad
  10
-456.944
  20
155.23
  0
VERTEX
  8
MMIC_BondPad
  10
-457.671
  20
154.571
  0
VERTEX
  8
MMIC_BondPad
  10
-458.33
  20
153.844
  0
VERTEX
  8
MMIC_BondPad
  10
-458.915
  20
153.056
  0
VERTEX
  8
MMIC_BondPad
  10
-459.419
  20
152.214
  0
VERTEX
  8
MMIC_BondPad
  10
-459.839
  20
151.327
  0
VERTEX
  8
MMIC_BondPad
  10
-460.169
  20
150.403
  0
VERTEX
  8
MMIC_BondPad
  10
-460.408
  20
149.451
  0
VERTEX
  8
MMIC_BondPad
  10
-460.552
  20
148.48
  0
VERTEX
  8
MMIC_BondPad
  10
-460.6
  20
147.5
  0
VERTEX
  8
MMIC_BondPad
  10
-460.6
  20
92.5
  0
VERTEX
  8
MMIC_BondPad
  10
-460.552
  20
91.52
  0
VERTEX
  8
MMIC_BondPad
  10
-460.408
  20
90.549
  0
SEQEND
  0
ENDSEC
  0
EOF
