  0
SECTION
  2
HEADER
  9
$ACADVER
  1
AC1009
  9
$INSUNITS
  70
13
  9
$EXTMIN
  10
-639.7
  20
-401.4
  9
$EXTMAX
  10
360.3
  20
348.6
  0
ENDSEC
  0
SECTION
  2
TABLES
  0
TABLE
  2
LTYPE
  70
1
  0
LTYPE
  2
CONTINUOUS
  70
64
  3
Solid line
  72
65
  73
0
  40
0
  0
ENDTAB
  0
TABLE
  2
LAYER
  70
6
  0
LAYER
  2
MMIC_Label
  70
0
  62
9
  6
CONTINUOUS
  0
LAYER
  2
MMIC_Via
  70
0
  62
208
  6
CONTINUOUS
  0
LAYER
  2
MMIC_Trace
  70
0
  62
3
  6
CONTINUOUS
  0
LAYER
  2
MMIC_BondPad
  70
0
  62
5
  6
CONTINUOUS
  0
LAYER
  2
MMIC_OverCoat
  70
0
  62
1
  6
CONTINUOUS
  0
LAYER
  2
MMIC_Die
  70
0
  62
75
  6
CONTINUOUS
  0
ENDTAB
  0
ENDSEC
  0
SECTION
  2
BLOCKS
  0
ENDSEC
  0
SECTION
  2
ENTITIES
  0
POLYLINE
  8
MMIC_Label
  70
1
  66
1
  0
VERTEX
  8
MMIC_Label
  10
255.11
  20
229.6
  0
VERTEX
  8
MMIC_Label
  10
265.01
  20
246.1
  0
VERTEX
  8
MMIC_Label
  10
255.11
  20
262.6
  0
VERTEX
  8
MMIC_Label
  10
262.37
  20
262.6
  0
VERTEX
  8
MMIC_Label
  10
268.97
  20
251.71
  0
VERTEX
  8
MMIC_Label
  10
275.57
  20
262.6
  0
VERTEX
  8
MMIC_Label
  10
282.5
  20
262.6
  0
VERTEX
  8
MMIC_Label
  10
272.6
  20
246.1
  0
VERTEX
  8
MMIC_Label
  10
282.5
  20
229.6
  0
VERTEX
  8
MMIC_Label
  10
275.57
  20
229.6
  0
VERTEX
  8
MMIC_Label
  10
268.97
  20
240.49
  0
VERTEX
  8
MMIC_Label
  10
262.37
  20
229.6
  0
SEQEND
  0
POLYLINE
  8
MMIC_Label
  70
1
  66
1
  0
VERTEX
  8
MMIC_Label
  10
-466.528
  20
220.69
  0
VERTEX
  8
MMIC_Label
  10
-470.707
  20
228.326
  0
VERTEX
  8
MMIC_Label
  10
-466.824
  20
235.119
  0
VERTEX
  8
MMIC_Label
  10
-469.649
  20
235.119
  0
VERTEX
  8
MMIC_Label
  10
-471.542
  20
231.709
  0
VERTEX
  8
MMIC_Label
  10
-471.934
  20
231.016
  0
VERTEX
  8
MMIC_Label
  10
-472.399
  20
230.119
  0
VERTEX
  8
MMIC_Label
  10
-472.696
  20
230.772
  0
VERTEX
  8
MMIC_Label
  10
-473.182
  20
231.736
  0
VERTEX
  8
MMIC_Label
  10
-474.907
  20
235.119
  0
VERTEX
  8
MMIC_Label
  10
-477.837
  20
235.119
  0
VERTEX
  8
MMIC_Label
  10
-474.039
  20
228.19
  0
VERTEX
  8
MMIC_Label
  10
-478.144
  20
220.69
  0
VERTEX
  8
MMIC_Label
  10
-475.288
  20
220.69
  0
VERTEX
  8
MMIC_Label
  10
-472.336
  20
226.383
  0
VERTEX
  8
MMIC_Label
  10
-471.722
  20
225.174
  0
VERTEX
  8
MMIC_Label
  10
-469.416
  20
220.69
  0
SEQEND
  0
POLYLINE
  8
MMIC_Label
  70
1
  66
1
  0
VERTEX
  8
MMIC_Label
  10
309.36
  20
288.16
  0
VERTEX
  8
MMIC_Label
  10
309.03
  20
286.18
  0
VERTEX
  8
MMIC_Label
  10
308.37
  20
284.86
  0
VERTEX
  8
MMIC_Label
  10
307.38
  20
283.54
  0
VERTEX
  8
MMIC_Label
  10
306.39
  20
282.88
  0
VERTEX
  8
MMIC_Label
  10
304.74
  20
282.22
  0
VERTEX
  8
MMIC_Label
  10
303.42
  20
281.89
  0
VERTEX
  8
MMIC_Label
  10
301.77
  20
281.89
  0
VERTEX
  8
MMIC_Label
  10
300.12
  20
282.22
  0
VERTEX
  8
MMIC_Label
  10
297.48
  20
283.54
  0
VERTEX
  8
MMIC_Label
  10
296.49
  20
284.86
  0
VERTEX
  8
MMIC_Label
  10
295.83
  20
286.18
  0
VERTEX
  8
MMIC_Label
  10
295.5
  20
288.16
  0
VERTEX
  8
MMIC_Label
  10
295.83
  20
289.81
  0
VERTEX
  8
MMIC_Label
  10
296.49
  20
291.13
  0
VERTEX
  8
MMIC_Label
  10
297.48
  20
292.45
  0
VERTEX
  8
MMIC_Label
  10
300.12
  20
293.77
  0
VERTEX
  8
MMIC_Label
  10
301.77
  20
294.1
  0
VERTEX
  8
MMIC_Label
  10
303.42
  20
294.1
  0
VERTEX
  8
MMIC_Label
  10
304.74
  20
293.77
  0
VERTEX
  8
MMIC_Label
  10
306.39
  20
293.11
  0
VERTEX
  8
MMIC_Label
  10
307.38
  20
292.45
  0
VERTEX
  8
MMIC_Label
  10
308.37
  20
291.13
  0
VERTEX
  8
MMIC_Label
  10
309.03
  20
289.81
  0
SEQEND
  0
POLYLINE
  8
MMIC_Label
  70
1
  66
1
  0
VERTEX
  8
MMIC_Label
  10
-566.7
  20
246.2
  0
VERTEX
  8
MMIC_Label
  10
-566.7
  20
310.6
  0
VERTEX
  8
MMIC_Label
  10
-571.7
  20
310.6
  0
VERTEX
  8
MMIC_Label
  10
-571.7
  20
246.2
  0
SEQEND
  0
POLYLINE
  8
MMIC_Label
  70
1
  66
1
  0
VERTEX
  8
MMIC_Label
  10
222.31
  20
229.6
  0
VERTEX
  8
MMIC_Label
  10
232.21
  20
246.1
  0
VERTEX
  8
MMIC_Label
  10
222.31
  20
262.6
  0
VERTEX
  8
MMIC_Label
  10
229.57
  20
262.6
  0
VERTEX
  8
MMIC_Label
  10
236.17
  20
251.71
  0
VERTEX
  8
MMIC_Label
  10
242.77
  20
262.6
  0
VERTEX
  8
MMIC_Label
  10
249.7
  20
262.6
  0
VERTEX
  8
MMIC_Label
  10
239.8
  20
246.1
  0
VERTEX
  8
MMIC_Label
  10
249.7
  20
229.6
  0
VERTEX
  8
MMIC_Label
  10
242.77
  20
229.6
  0
VERTEX
  8
MMIC_Label
  10
236.17
  20
240.49
  0
VERTEX
  8
MMIC_Label
  10
229.57
  20
229.6
  0
SEQEND
  0
POLYLINE
  8
MMIC_Label
  70
1
  66
1
  0
VERTEX
  8
MMIC_Label
  10
189.51
  20
229.6
  0
VERTEX
  8
MMIC_Label
  10
189.51
  20
262.6
  0
VERTEX
  8
MMIC_Label
  10
216.9
  20
262.6
  0
VERTEX
  8
MMIC_Label
  10
216.9
  20
256.99
  0
VERTEX
  8
MMIC_Label
  10
196.11
  20
256.99
  0
VERTEX
  8
MMIC_Label
  10
196.11
  20
248.74
  0
VERTEX
  8
MMIC_Label
  10
214.26
  20
248.74
  0
VERTEX
  8
MMIC_Label
  10
214.26
  20
243.46
  0
VERTEX
  8
MMIC_Label
  10
196.11
  20
243.46
  0
VERTEX
  8
MMIC_Label
  10
196.11
  20
229.6
  0
SEQEND
  0
POLYLINE
  8
MMIC_Label
  70
1
  66
1
  0
VERTEX
  8
MMIC_Label
  10
-561.7
  20
301.3
  0
VERTEX
  8
MMIC_Label
  10
-546.7
  20
301.3
  0
VERTEX
  8
MMIC_Label
  10
-546.7
  20
286.3
  0
VERTEX
  8
MMIC_Label
  10
-561.7
  20
286.3
  0
SEQEND
  0
POLYLINE
  8
MMIC_Label
  70
1
  66
1
  0
VERTEX
  8
MMIC_Label
  10
254.7
  20
300.04
  0
VERTEX
  8
MMIC_Label
  10
254.04
  20
302.35
  0
VERTEX
  8
MMIC_Label
  10
253.05
  20
304.66
  0
VERTEX
  8
MMIC_Label
  10
251.73
  20
306.31
  0
VERTEX
  8
MMIC_Label
  10
250.08
  20
307.96
  0
VERTEX
  8
MMIC_Label
  10
248.43
  20
309.28
  0
VERTEX
  8
MMIC_Label
  10
246.12
  20
310.27
  0
VERTEX
  8
MMIC_Label
  10
244.14
  20
310.6
  0
VERTEX
  8
MMIC_Label
  10
238.86
  20
310.6
  0
VERTEX
  8
MMIC_Label
  10
236.55
  20
310.27
  0
VERTEX
  8
MMIC_Label
  10
234.24
  20
308.95
  0
VERTEX
  8
MMIC_Label
  10
232.59
  20
307.63
  0
VERTEX
  8
MMIC_Label
  10
230.94
  20
305.98
  0
VERTEX
  8
MMIC_Label
  10
229.62
  20
303.67
  0
VERTEX
  8
MMIC_Label
  10
228.63
  20
301.69
  0
VERTEX
  8
MMIC_Label
  10
227.97
  20
299.05
  0
VERTEX
  8
MMIC_Label
  10
227.64
  20
296.74
  0
VERTEX
  8
MMIC_Label
  10
227.31
  20
294.1
  0
VERTEX
  8
MMIC_Label
  10
227.64
  20
291.46
  0
VERTEX
  8
MMIC_Label
  10
227.97
  20
289.15
  0
VERTEX
  8
MMIC_Label
  10
228.63
  20
286.51
  0
VERTEX
  8
MMIC_Label
  10
229.62
  20
284.53
  0
VERTEX
  8
MMIC_Label
  10
230.94
  20
282.22
  0
VERTEX
  8
MMIC_Label
  10
232.59
  20
280.57
  0
VERTEX
  8
MMIC_Label
  10
234.24
  20
279.25
  0
VERTEX
  8
MMIC_Label
  10
236.55
  20
277.93
  0
VERTEX
  8
MMIC_Label
  10
238.86
  20
277.6
  0
VERTEX
  8
MMIC_Label
  10
243.48
  20
277.6
  0
VERTEX
  8
MMIC_Label
  10
245.46
  20
277.93
  0
VERTEX
  8
MMIC_Label
  10
248.76
  20
279.91
  0
VERTEX
  8
MMIC_Label
  10
249.75
  20
281.56
  0
VERTEX
  8
MMIC_Label
  10
251.07
  20
277.6
  0
VERTEX
  8
MMIC_Label
  10
254.7
  20
277.6
  0
VERTEX
  8
MMIC_Label
  10
254.7
  20
294.1
  0
VERTEX
  8
MMIC_Label
  10
242.16
  20
294.1
  0
VERTEX
  8
MMIC_Label
  10
242.16
  20
289.15
  0
VERTEX
  8
MMIC_Label
  10
248.1
  20
289.15
  0
VERTEX
  8
MMIC_Label
  10
247.77
  20
287.5
  0
VERTEX
  8
MMIC_Label
  10
247.11
  20
285.85
  0
VERTEX
  8
MMIC_Label
  10
246.12
  20
284.53
  0
VERTEX
  8
MMIC_Label
  10
244.8
  20
283.54
  0
VERTEX
  8
MMIC_Label
  10
243.48
  20
282.88
  0
VERTEX
  8
MMIC_Label
  10
241.5
  20
282.55
  0
VERTEX
  8
MMIC_Label
  10
239.85
  20
282.88
  0
VERTEX
  8
MMIC_Label
  10
238.2
  20
283.54
  0
VERTEX
  8
MMIC_Label
  10
236.88
  20
284.53
  0
VERTEX
  8
MMIC_Label
  10
235.56
  20
286.18
  0
VERTEX
  8
MMIC_Label
  10
234.9
  20
287.83
  0
VERTEX
  8
MMIC_Label
  10
234.24
  20
289.81
  0
VERTEX
  8
MMIC_Label
  10
233.91
  20
291.79
  0
VERTEX
  8
MMIC_Label
  10
233.91
  20
296.41
  0
VERTEX
  8
MMIC_Label
  10
234.24
  20
298.39
  0
VERTEX
  8
MMIC_Label
  10
234.9
  20
300.37
  0
VERTEX
  8
MMIC_Label
  10
235.56
  20
302.02
  0
VERTEX
  8
MMIC_Label
  10
236.88
  20
303.67
  0
VERTEX
  8
MMIC_Label
  10
238.2
  20
304.66
  0
VERTEX
  8
MMIC_Label
  10
239.85
  20
305.32
  0
VERTEX
  8
MMIC_Label
  10
241.5
  20
305.65
  0
VERTEX
  8
MMIC_Label
  10
243.48
  20
305.32
  0
VERTEX
  8
MMIC_Label
  10
245.13
  20
304.33
  0
VERTEX
  8
MMIC_Label
  10
246.45
  20
303.34
  0
VERTEX
  8
MMIC_Label
  10
247.44
  20
301.69
  0
VERTEX
  8
MMIC_Label
  10
248.1
  20
300.04
  0
SEQEND
  0
POLYLINE
  8
MMIC_Label
  70
1
  66
1
  0
VERTEX
  8
MMIC_Label
  10
68.21
  20
241.15
  0
VERTEX
  8
MMIC_Label
  10
72.17
  20
255.34
  0
VERTEX
  8
MMIC_Label
  10
75.8
  20
241.15
  0
SEQEND
  0
POLYLINE
  8
MMIC_Label
  70
1
  66
1
  0
VERTEX
  8
MMIC_Label
  10
309.36
  20
288.16
  0
VERTEX
  8
MMIC_Label
  10
309.03
  20
286.18
  0
VERTEX
  8
MMIC_Label
  10
308.37
  20
284.86
  0
VERTEX
  8
MMIC_Label
  10
307.38
  20
283.54
  0
VERTEX
  8
MMIC_Label
  10
306.39
  20
282.88
  0
VERTEX
  8
MMIC_Label
  10
304.74
  20
282.22
  0
VERTEX
  8
MMIC_Label
  10
303.42
  20
281.89
  0
VERTEX
  8
MMIC_Label
  10
301.77
  20
281.89
  0
VERTEX
  8
MMIC_Label
  10
300.12
  20
282.22
  0
VERTEX
  8
MMIC_Label
  10
297.48
  20
283.54
  0
VERTEX
  8
MMIC_Label
  10
296.49
  20
284.86
  0
VERTEX
  8
MMIC_Label
  10
295.83
  20
286.18
  0
VERTEX
  8
MMIC_Label
  10
295.5
  20
288.16
  0
VERTEX
  8
MMIC_Label
  10
295.83
  20
289.81
  0
VERTEX
  8
MMIC_Label
  10
296.49
  20
291.13
  0
VERTEX
  8
MMIC_Label
  10
297.48
  20
292.45
  0
VERTEX
  8
MMIC_Label
  10
300.12
  20
293.77
  0
VERTEX
  8
MMIC_Label
  10
301.77
  20
294.1
  0
VERTEX
  8
MMIC_Label
  10
303.42
  20
294.1
  0
VERTEX
  8
MMIC_Label
  10
304.74
  20
293.77
  0
VERTEX
  8
MMIC_Label
  10
306.39
  20
293.11
  0
VERTEX
  8
MMIC_Label
  10
307.38
  20
292.45
  0
VERTEX
  8
MMIC_Label
  10
308.37
  20
291.13
  0
VERTEX
  8
MMIC_Label
  10
309.03
  20
289.81
  0
SEQEND
  0
POLYLINE
  8
MMIC_Label
  70
1
  66
1
  0
VERTEX
  8
MMIC_Label
  10
-578.4
  20
257.8
  0
VERTEX
  8
MMIC_Label
  10
-580.1
  20
256.1
  0
VERTEX
  8
MMIC_Label
  10
-582.1
  20
255.1
  0
VERTEX
  8
MMIC_Label
  10
-585.9
  20
255.1
  0
VERTEX
  8
MMIC_Label
  10
-587.8
  20
256.2
  0
VERTEX
  8
MMIC_Label
  10
-589.4
  20
258
  0
VERTEX
  8
MMIC_Label
  10
-590.3
  20
259.6
  0
VERTEX
  8
MMIC_Label
  10
-591.2
  20
262.2
  0
VERTEX
  8
MMIC_Label
  10
-591.2
  20
264.7
  0
VERTEX
  8
MMIC_Label
  10
-590.3
  20
267.1
  0
VERTEX
  8
MMIC_Label
  10
-589.4
  20
268.9
  0
VERTEX
  8
MMIC_Label
  10
-587.7
  20
270.6
  0
VERTEX
  8
MMIC_Label
  10
-585.7
  20
271.6
  0
VERTEX
  8
MMIC_Label
  10
-581.9
  20
271.6
  0
VERTEX
  8
MMIC_Label
  10
-580.2
  20
270.6
  0
VERTEX
  8
MMIC_Label
  10
-578.4
  20
268.9
  0
VERTEX
  8
MMIC_Label
  10
-577.5
  20
267.2
  0
VERTEX
  8
MMIC_Label
  10
-580.2
  20
265.8
  0
VERTEX
  8
MMIC_Label
  10
-580.8
  20
267.1
  0
VERTEX
  8
MMIC_Label
  10
-582
  20
268.1
  0
VERTEX
  8
MMIC_Label
  10
-582.7
  20
268.6
  0
VERTEX
  8
MMIC_Label
  10
-585
  20
268.6
  0
VERTEX
  8
MMIC_Label
  10
-585.9
  20
268.1
  0
VERTEX
  8
MMIC_Label
  10
-586.9
  20
267.1
  0
VERTEX
  8
MMIC_Label
  10
-587.5
  20
265.9
  0
VERTEX
  8
MMIC_Label
  10
-588.2
  20
264.1
  0
VERTEX
  8
MMIC_Label
  10
-588.2
  20
262.7
  0
VERTEX
  8
MMIC_Label
  10
-587.5
  20
260.8
  0
VERTEX
  8
MMIC_Label
  10
-586.9
  20
259.7
  0
VERTEX
  8
MMIC_Label
  10
-585.9
  20
258.5
  0
VERTEX
  8
MMIC_Label
  10
-585.1
  20
258.1
  0
VERTEX
  8
MMIC_Label
  10
-582.8
  20
258.1
  0
VERTEX
  8
MMIC_Label
  10
-581.9
  20
258.6
  0
VERTEX
  8
MMIC_Label
  10
-580.9
  20
259.6
  0
VERTEX
  8
MMIC_Label
  10
-580.2
  20
260.9
  0
VERTEX
  8
MMIC_Label
  10
-577.5
  20
259.5
  0
SEQEND
  0
POLYLINE
  8
MMIC_Label
  70
1
  66
1
  0
VERTEX
  8
MMIC_Label
  10
309.36
  20
288.16
  0
VERTEX
  8
MMIC_Label
  10
309.03
  20
286.18
  0
VERTEX
  8
MMIC_Label
  10
308.37
  20
284.86
  0
VERTEX
  8
MMIC_Label
  10
307.38
  20
283.54
  0
VERTEX
  8
MMIC_Label
  10
306.39
  20
282.88
  0
VERTEX
  8
MMIC_Label
  10
304.74
  20
282.22
  0
VERTEX
  8
MMIC_Label
  10
303.42
  20
281.89
  0
VERTEX
  8
MMIC_Label
  10
301.77
  20
281.89
  0
VERTEX
  8
MMIC_Label
  10
300.12
  20
282.22
  0
VERTEX
  8
MMIC_Label
  10
297.48
  20
283.54
  0
VERTEX
  8
MMIC_Label
  10
296.49
  20
284.86
  0
VERTEX
  8
MMIC_Label
  10
295.83
  20
286.18
  0
VERTEX
  8
MMIC_Label
  10
295.5
  20
288.16
  0
VERTEX
  8
MMIC_Label
  10
295.83
  20
289.81
  0
VERTEX
  8
MMIC_Label
  10
296.49
  20
291.13
  0
VERTEX
  8
MMIC_Label
  10
297.48
  20
292.45
  0
VERTEX
  8
MMIC_Label
  10
300.12
  20
293.77
  0
VERTEX
  8
MMIC_Label
  10
301.77
  20
294.1
  0
VERTEX
  8
MMIC_Label
  10
303.42
  20
294.1
  0
VERTEX
  8
MMIC_Label
  10
304.74
  20
293.77
  0
VERTEX
  8
MMIC_Label
  10
306.39
  20
293.11
  0
VERTEX
  8
MMIC_Label
  10
307.38
  20
292.45
  0
VERTEX
  8
MMIC_Label
  10
308.37
  20
291.13
  0
VERTEX
  8
MMIC_Label
  10
309.03
  20
289.81
  0
SEQEND
  0
POLYLINE
  8
MMIC_Label
  70
1
  66
1
  0
VERTEX
  8
MMIC_Label
  10
-439.828
  20
220.69
  0
VERTEX
  8
MMIC_Label
  10
-444.007
  20
228.326
  0
VERTEX
  8
MMIC_Label
  10
-440.124
  20
235.119
  0
VERTEX
  8
MMIC_Label
  10
-442.949
  20
235.119
  0
VERTEX
  8
MMIC_Label
  10
-444.842
  20
231.709
  0
VERTEX
  8
MMIC_Label
  10
-445.234
  20
231.016
  0
VERTEX
  8
MMIC_Label
  10
-445.699
  20
230.119
  0
VERTEX
  8
MMIC_Label
  10
-445.996
  20
230.772
  0
VERTEX
  8
MMIC_Label
  10
-446.482
  20
231.736
  0
VERTEX
  8
MMIC_Label
  10
-448.207
  20
235.119
  0
VERTEX
  8
MMIC_Label
  10
-451.137
  20
235.119
  0
VERTEX
  8
MMIC_Label
  10
-447.339
  20
228.19
  0
VERTEX
  8
MMIC_Label
  10
-451.444
  20
220.69
  0
VERTEX
  8
MMIC_Label
  10
-448.588
  20
220.69
  0
VERTEX
  8
MMIC_Label
  10
-445.636
  20
226.383
  0
VERTEX
  8
MMIC_Label
  10
-445.022
  20
225.174
  0
VERTEX
  8
MMIC_Label
  10
-442.716
  20
220.69
  0
SEQEND
  0
POLYLINE
  8
MMIC_Label
  70
1
  66
1
  0
VERTEX
  8
MMIC_Label
  10
-577.5
  20
259.5
  0
VERTEX
  8
MMIC_Label
  10
-580.2
  20
260.9
  0
VERTEX
  8
MMIC_Label
  10
-580.9
  20
259.6
  0
VERTEX
  8
MMIC_Label
  10
-581.9
  20
258.6
  0
VERTEX
  8
MMIC_Label
  10
-582.8
  20
258.1
  0
VERTEX
  8
MMIC_Label
  10
-585.1
  20
258.1
  0
VERTEX
  8
MMIC_Label
  10
-585.9
  20
258.5
  0
VERTEX
  8
MMIC_Label
  10
-586.9
  20
259.7
  0
VERTEX
  8
MMIC_Label
  10
-587.5
  20
260.8
  0
VERTEX
  8
MMIC_Label
  10
-588.2
  20
262.7
  0
VERTEX
  8
MMIC_Label
  10
-588.2
  20
264.1
  0
VERTEX
  8
MMIC_Label
  10
-587.5
  20
265.9
  0
VERTEX
  8
MMIC_Label
  10
-586.9
  20
267.1
  0
VERTEX
  8
MMIC_Label
  10
-585.9
  20
268.1
  0
VERTEX
  8
MMIC_Label
  10
-585
  20
268.6
  0
VERTEX
  8
MMIC_Label
  10
-582.7
  20
268.6
  0
VERTEX
  8
MMIC_Label
  10
-582
  20
268.1
  0
VERTEX
  8
MMIC_Label
  10
-580.8
  20
267.1
  0
VERTEX
  8
MMIC_Label
  10
-580.2
  20
265.8
  0
VERTEX
  8
MMIC_Label
  10
-577.5
  20
267.2
  0
VERTEX
  8
MMIC_Label
  10
-578.4
  20
268.9
  0
VERTEX
  8
MMIC_Label
  10
-580.2
  20
270.6
  0
VERTEX
  8
MMIC_Label
  10
-581.9
  20
271.6
  0
VERTEX
  8
MMIC_Label
  10
-585.7
  20
271.6
  0
VERTEX
  8
MMIC_Label
  10
-587.7
  20
270.6
  0
VERTEX
  8
MMIC_Label
  10
-589.4
  20
268.9
  0
VERTEX
  8
MMIC_Label
  10
-590.3
  20
267.1
  0
VERTEX
  8
MMIC_Label
  10
-591.2
  20
264.7
  0
VERTEX
  8
MMIC_Label
  10
-591.2
  20
262.2
  0
VERTEX
  8
MMIC_Label
  10
-590.3
  20
259.6
  0
VERTEX
  8
MMIC_Label
  10
-589.4
  20
258
  0
VERTEX
  8
MMIC_Label
  10
-587.8
  20
256.2
  0
VERTEX
  8
MMIC_Label
  10
-585.9
  20
255.1
  0
VERTEX
  8
MMIC_Label
  10
-582.1
  20
255.1
  0
VERTEX
  8
MMIC_Label
  10
-580.1
  20
256.1
  0
VERTEX
  8
MMIC_Label
  10
-578.4
  20
257.8
  0
SEQEND
  0
POLYLINE
  8
MMIC_Label
  70
1
  66
1
  0
VERTEX
  8
MMIC_Label
  10
-526.7
  20
251.2
  0
VERTEX
  8
MMIC_Label
  10
-551.7
  20
251.2
  0
VERTEX
  8
MMIC_Label
  10
-551.7
  20
246.2
  0
VERTEX
  8
MMIC_Label
  10
-526.7
  20
246.2
  0
SEQEND
  0
POLYLINE
  8
MMIC_Label
  70
1
  66
1
  0
VERTEX
  8
MMIC_Label
  10
-483.297
  20
227.63
  0
VERTEX
  8
MMIC_Label
  10
-490.607
  20
227.63
  0
VERTEX
  8
MMIC_Label
  10
-487.208
  20
234.92
  0
VERTEX
  8
MMIC_Label
  10
-486.96
  20
234.92
  0
VERTEX
  8
MMIC_Label
  10
-486.96
  20
230.09
  0
VERTEX
  8
MMIC_Label
  10
-484.441
  20
230.09
  0
VERTEX
  8
MMIC_Label
  10
-484.441
  20
240.79
  0
VERTEX
  8
MMIC_Label
  10
-486.62
  20
240.79
  0
VERTEX
  8
MMIC_Label
  10
-491.154
  20
231.203
  0
VERTEX
  8
MMIC_Label
  10
-492.786
  20
227.752
  0
VERTEX
  8
MMIC_Label
  10
-492.786
  20
225.379
  0
VERTEX
  8
MMIC_Label
  10
-487.63
  20
225.379
  0
VERTEX
  8
MMIC_Label
  10
-487.63
  20
220.59
  0
VERTEX
  8
MMIC_Label
  10
-485.111
  20
220.59
  0
VERTEX
  8
MMIC_Label
  10
-485.111
  20
225.379
  0
VERTEX
  8
MMIC_Label
  10
-483.297
  20
225.379
  0
SEQEND
  0
POLYLINE
  8
MMIC_Label
  70
1
  66
1
  0
VERTEX
  8
MMIC_Label
  10
261.76
  20
277.6
  0
VERTEX
  8
MMIC_Label
  10
261.76
  20
282.55
  0
VERTEX
  8
MMIC_Label
  10
269.02
  20
282.55
  0
VERTEX
  8
MMIC_Label
  10
269.02
  20
299.71
  0
VERTEX
  8
MMIC_Label
  10
260.11
  20
299.71
  0
VERTEX
  8
MMIC_Label
  10
260.11
  20
304
  0
VERTEX
  8
MMIC_Label
  10
261.76
  20
304
  0
VERTEX
  8
MMIC_Label
  10
263.74
  20
304.33
  0
VERTEX
  8
MMIC_Label
  10
265.72
  20
304.99
  0
VERTEX
  8
MMIC_Label
  10
267.37
  20
305.65
  0
VERTEX
  8
MMIC_Label
  10
268.69
  20
306.97
  0
VERTEX
  8
MMIC_Label
  10
269.68
  20
308.62
  0
VERTEX
  8
MMIC_Label
  10
270.01
  20
310.6
  0
VERTEX
  8
MMIC_Label
  10
275.62
  20
310.6
  0
VERTEX
  8
MMIC_Label
  10
275.62
  20
282.55
  0
VERTEX
  8
MMIC_Label
  10
282.88
  20
282.55
  0
VERTEX
  8
MMIC_Label
  10
282.88
  20
277.6
  0
SEQEND
  0
POLYLINE
  8
MMIC_Label
  70
1
  66
1
  0
VERTEX
  8
MMIC_Label
  10
-446.7
  20
251.2
  0
VERTEX
  8
MMIC_Label
  10
-461.7
  20
251.2
  0
VERTEX
  8
MMIC_Label
  10
-461.7
  20
246.2
  0
VERTEX
  8
MMIC_Label
  10
-446.7
  20
246.2
  0
SEQEND
  0
POLYLINE
  8
MMIC_Label
  70
1
  66
1
  0
VERTEX
  8
MMIC_Label
  10
-416.359
  20
226.123
  0
VERTEX
  8
MMIC_Label
  10
-416.955
  20
230.597
  0
VERTEX
  8
MMIC_Label
  10
-416.958
  20
230.606
  0
VERTEX
  8
MMIC_Label
  10
-418.866
  20
233.66
  0
VERTEX
  8
MMIC_Label
  10
-423.547
  20
233.66
  0
VERTEX
  8
MMIC_Label
  10
-423.547
  20
230.89
  0
VERTEX
  8
MMIC_Label
  10
-420.095
  20
230.89
  0
VERTEX
  8
MMIC_Label
  10
-419.652
  20
230.391
  0
VERTEX
  8
MMIC_Label
  10
-419.353
  20
229.914
  0
VERTEX
  8
MMIC_Label
  10
-418.874
  20
226.331
  0
VERTEX
  8
MMIC_Label
  10
-419.866
  20
224.015
  0
VERTEX
  8
MMIC_Label
  10
-420.039
  20
223.756
  0
VERTEX
  8
MMIC_Label
  10
-421.274
  20
223.101
  0
VERTEX
  8
MMIC_Label
  10
-423.123
  20
223.185
  0
VERTEX
  8
MMIC_Label
  10
-424.357
  20
223.432
  0
VERTEX
  8
MMIC_Label
  10
-425.163
  20
223.969
  0
VERTEX
  8
MMIC_Label
  10
-425.947
  20
225.616
  0
VERTEX
  8
MMIC_Label
  10
-425.947
  20
237.53
  0
VERTEX
  8
MMIC_Label
  10
-425.892
  20
237.967
  0
VERTEX
  8
MMIC_Label
  10
-424.978
  20
239.034
  0
VERTEX
  8
MMIC_Label
  10
-424.629
  20
239.267
  0
VERTEX
  8
MMIC_Label
  10
-423.354
  20
239.607
  0
VERTEX
  8
MMIC_Label
  10
-422.767
  20
239.68
  0
VERTEX
  8
MMIC_Label
  10
-420.859
  20
239.362
  0
VERTEX
  8
MMIC_Label
  10
-420.352
  20
238.791
  0
VERTEX
  8
MMIC_Label
  10
-419.979
  20
238.194
  0
VERTEX
  8
MMIC_Label
  10
-419.717
  20
237.147
  0
VERTEX
  8
MMIC_Label
  10
-417.558
  20
237.688
  0
VERTEX
  8
MMIC_Label
  10
-418.011
  20
239.502
  0
VERTEX
  8
MMIC_Label
  10
-418.04
  20
239.548
  0
VERTEX
  8
MMIC_Label
  10
-419.993
  20
241.744
  0
VERTEX
  8
MMIC_Label
  10
-422.727
  20
242.2
  0
VERTEX
  8
MMIC_Label
  10
-423.74
  20
242.073
  0
VERTEX
  8
MMIC_Label
  10
-425.743
  20
241.539
  0
VERTEX
  8
MMIC_Label
  10
-428.504
  20
238.32
  0
VERTEX
  8
MMIC_Label
  10
-428.587
  20
237.65
  0
VERTEX
  8
MMIC_Label
  10
-428.587
  20
225.164
  0
VERTEX
  8
MMIC_Label
  10
-426.93
  20
221.683
  0
VERTEX
  8
MMIC_Label
  10
-425.557
  20
220.768
  0
VERTEX
  8
MMIC_Label
  10
-423.791
  20
220.415
  0
VERTEX
  8
MMIC_Label
  10
-420.441
  20
220.263
  0
VERTEX
  8
MMIC_Label
  10
-418.928
  20
221.062
  0
VERTEX
  8
MMIC_Label
  10
-417.808
  20
222.745
  0
SEQEND
  0
POLYLINE
  8
MMIC_Label
  70
1
  66
1
  0
VERTEX
  8
MMIC_Label
  10
-446.7
  20
246.2
  0
VERTEX
  8
MMIC_Label
  10
-446.7
  20
310.6
  0
VERTEX
  8
MMIC_Label
  10
-451.7
  20
310.6
  0
VERTEX
  8
MMIC_Label
  10
-451.7
  20
246.2
  0
SEQEND
  0
POLYLINE
  8
MMIC_Label
  70
1
  66
1
  0
VERTEX
  8
MMIC_Label
  10
-436.7
  20
251.2
  0
VERTEX
  8
MMIC_Label
  10
-461.7
  20
251.2
  0
VERTEX
  8
MMIC_Label
  10
-461.7
  20
246.2
  0
VERTEX
  8
MMIC_Label
  10
-436.7
  20
246.2
  0
SEQEND
  0
POLYLINE
  8
MMIC_Label
  70
1
  66
1
  0
VERTEX
  8
MMIC_Label
  10
-431.7
  20
305.6
  0
VERTEX
  8
MMIC_Label
  10
-416.7
  20
305.6
  0
VERTEX
  8
MMIC_Label
  10
-416.7
  20
310.6
  0
VERTEX
  8
MMIC_Label
  10
-431.7
  20
310.6
  0
SEQEND
  0
POLYLINE
  8
MMIC_Label
  70
1
  66
1
  0
VERTEX
  8
MMIC_Label
  10
-578.1
  20
298.5
  0
VERTEX
  8
MMIC_Label
  10
-579.2
  20
300.4
  0
VERTEX
  8
MMIC_Label
  10
-580.4
  20
301.4
  0
VERTEX
  8
MMIC_Label
  10
-583
  20
302.3
  0
VERTEX
  8
MMIC_Label
  10
-591.2
  20
302.3
  0
VERTEX
  8
MMIC_Label
  10
-591.2
  20
285.8
  0
VERTEX
  8
MMIC_Label
  10
-588.2
  20
285.8
  0
VERTEX
  8
MMIC_Label
  10
-588.2
  20
299.3
  0
VERTEX
  8
MMIC_Label
  10
-583.5
  20
299.3
  0
VERTEX
  8
MMIC_Label
  10
-581.9
  20
298.7
  0
VERTEX
  8
MMIC_Label
  10
-581.6
  20
298.5
  0
VERTEX
  8
MMIC_Label
  10
-581.1
  20
297.7
  0
VERTEX
  8
MMIC_Label
  10
-581.1
  20
297.1
  0
VERTEX
  8
MMIC_Label
  10
-581.8
  20
295.8
  0
VERTEX
  8
MMIC_Label
  10
-582
  20
295.7
  0
VERTEX
  8
MMIC_Label
  10
-583.6
  20
295.1
  0
VERTEX
  8
MMIC_Label
  10
-586.7
  20
295.1
  0
VERTEX
  8
MMIC_Label
  10
-586.7
  20
292.1
  0
VERTEX
  8
MMIC_Label
  10
-585.4
  20
292.1
  0
VERTEX
  8
MMIC_Label
  10
-580.9
  20
285
  0
VERTEX
  8
MMIC_Label
  10
-578.4
  20
286.6
  0
VERTEX
  8
MMIC_Label
  10
-582.1
  20
292.5
  0
VERTEX
  8
MMIC_Label
  10
-580.3
  20
293
  0
VERTEX
  8
MMIC_Label
  10
-579.3
  20
294.1
  0
VERTEX
  8
MMIC_Label
  10
-578.1
  20
296.4
  0
SEQEND
  0
POLYLINE
  8
MMIC_Label
  70
1
  66
1
  0
VERTEX
  8
MMIC_Label
  10
-461.7
  20
305.6
  0
VERTEX
  8
MMIC_Label
  10
-436.7
  20
305.6
  0
VERTEX
  8
MMIC_Label
  10
-436.7
  20
310.6
  0
VERTEX
  8
MMIC_Label
  10
-461.7
  20
310.6
  0
SEQEND
  0
POLYLINE
  8
MMIC_Label
  70
1
  66
1
  0
VERTEX
  8
MMIC_Label
  10
204.41
  20
289.15
  0
VERTEX
  8
MMIC_Label
  10
208.37
  20
303.34
  0
VERTEX
  8
MMIC_Label
  10
212
  20
289.15
  0
SEQEND
  0
POLYLINE
  8
MMIC_Label
  70
1
  66
1
  0
VERTEX
  8
MMIC_Label
  10
-416.7
  20
251.2
  0
VERTEX
  8
MMIC_Label
  10
-431.7
  20
251.2
  0
VERTEX
  8
MMIC_Label
  10
-431.7
  20
246.2
  0
VERTEX
  8
MMIC_Label
  10
-416.7
  20
246.2
  0
SEQEND
  0
POLYLINE
  8
MMIC_Label
  70
1
  66
1
  0
VERTEX
  8
MMIC_Label
  10
-545.628
  20
240.79
  0
VERTEX
  8
MMIC_Label
  10
-547.024
  20
240.79
  0
VERTEX
  8
MMIC_Label
  10
-547.54
  20
239.451
  0
VERTEX
  8
MMIC_Label
  10
-548.723
  20
238.093
  0
VERTEX
  8
MMIC_Label
  10
-549.909
  20
236.732
  0
VERTEX
  8
MMIC_Label
  10
-551.541
  20
235.746
  0
VERTEX
  8
MMIC_Label
  10
-551.541
  20
233.222
  0
VERTEX
  8
MMIC_Label
  10
-551.517
  20
233.206
  0
VERTEX
  8
MMIC_Label
  10
-551.492
  20
233.191
  0
VERTEX
  8
MMIC_Label
  10
-550.501
  20
233.661
  0
VERTEX
  8
MMIC_Label
  10
-549.376
  20
234.509
  0
VERTEX
  8
MMIC_Label
  10
-548.25
  20
235.359
  0
VERTEX
  8
MMIC_Label
  10
-547.732
  20
235.993
  0
VERTEX
  8
MMIC_Label
  10
-547.732
  20
220.59
  0
VERTEX
  8
MMIC_Label
  10
-545.628
  20
220.59
  0
SEQEND
  0
POLYLINE
  8
MMIC_Label
  70
1
  66
1
  0
VERTEX
  8
MMIC_Label
  10
-521.7
  20
310.6
  0
VERTEX
  8
MMIC_Label
  10
-496.7
  20
310.6
  0
VERTEX
  8
MMIC_Label
  10
-496.7
  20
305.6
  0
VERTEX
  8
MMIC_Label
  10
-521.7
  20
305.6
  0
SEQEND
  0
POLYLINE
  8
MMIC_Label
  70
1
  66
1
  0
VERTEX
  8
MMIC_Label
  10
194.51
  20
277.6
  0
VERTEX
  8
MMIC_Label
  10
204.41
  20
310.6
  0
VERTEX
  8
MMIC_Label
  10
212
  20
310.6
  0
VERTEX
  8
MMIC_Label
  10
221.9
  20
277.6
  0
VERTEX
  8
MMIC_Label
  10
214.97
  20
277.6
  0
VERTEX
  8
MMIC_Label
  10
213.32
  20
284.2
  0
VERTEX
  8
MMIC_Label
  10
203.42
  20
284.2
  0
VERTEX
  8
MMIC_Label
  10
201.77
  20
277.6
  0
SEQEND
  0
POLYLINE
  8
MMIC_Label
  70
1
  66
1
  0
VERTEX
  8
MMIC_Label
  10
222.31
  20
229.6
  0
VERTEX
  8
MMIC_Label
  10
232.21
  20
246.1
  0
VERTEX
  8
MMIC_Label
  10
222.31
  20
262.6
  0
VERTEX
  8
MMIC_Label
  10
229.57
  20
262.6
  0
VERTEX
  8
MMIC_Label
  10
236.17
  20
251.71
  0
VERTEX
  8
MMIC_Label
  10
242.77
  20
262.6
  0
VERTEX
  8
MMIC_Label
  10
249.7
  20
262.6
  0
VERTEX
  8
MMIC_Label
  10
239.8
  20
246.1
  0
VERTEX
  8
MMIC_Label
  10
249.7
  20
229.6
  0
VERTEX
  8
MMIC_Label
  10
242.77
  20
229.6
  0
VERTEX
  8
MMIC_Label
  10
236.17
  20
240.49
  0
VERTEX
  8
MMIC_Label
  10
229.57
  20
229.6
  0
SEQEND
  0
POLYLINE
  8
MMIC_Label
  70
1
  66
1
  0
VERTEX
  8
MMIC_Label
  10
118.5
  20
252.04
  0
VERTEX
  8
MMIC_Label
  10
117.84
  20
254.35
  0
VERTEX
  8
MMIC_Label
  10
116.85
  20
256.66
  0
VERTEX
  8
MMIC_Label
  10
115.53
  20
258.31
  0
VERTEX
  8
MMIC_Label
  10
113.88
  20
259.96
  0
VERTEX
  8
MMIC_Label
  10
112.23
  20
261.28
  0
VERTEX
  8
MMIC_Label
  10
109.92
  20
262.27
  0
VERTEX
  8
MMIC_Label
  10
107.94
  20
262.6
  0
VERTEX
  8
MMIC_Label
  10
102.66
  20
262.6
  0
VERTEX
  8
MMIC_Label
  10
100.35
  20
262.27
  0
VERTEX
  8
MMIC_Label
  10
98.04
  20
260.95
  0
VERTEX
  8
MMIC_Label
  10
96.39
  20
259.63
  0
VERTEX
  8
MMIC_Label
  10
94.74
  20
257.98
  0
VERTEX
  8
MMIC_Label
  10
93.42
  20
255.67
  0
VERTEX
  8
MMIC_Label
  10
92.43
  20
253.69
  0
VERTEX
  8
MMIC_Label
  10
91.77
  20
251.05
  0
VERTEX
  8
MMIC_Label
  10
91.44
  20
248.74
  0
VERTEX
  8
MMIC_Label
  10
91.11
  20
246.1
  0
VERTEX
  8
MMIC_Label
  10
91.44
  20
243.46
  0
VERTEX
  8
MMIC_Label
  10
91.77
  20
241.15
  0
VERTEX
  8
MMIC_Label
  10
92.43
  20
238.51
  0
VERTEX
  8
MMIC_Label
  10
93.42
  20
236.53
  0
VERTEX
  8
MMIC_Label
  10
94.74
  20
234.22
  0
VERTEX
  8
MMIC_Label
  10
96.39
  20
232.57
  0
VERTEX
  8
MMIC_Label
  10
98.04
  20
231.25
  0
VERTEX
  8
MMIC_Label
  10
100.35
  20
229.93
  0
VERTEX
  8
MMIC_Label
  10
102.66
  20
229.6
  0
VERTEX
  8
MMIC_Label
  10
107.28
  20
229.6
  0
VERTEX
  8
MMIC_Label
  10
109.26
  20
229.93
  0
VERTEX
  8
MMIC_Label
  10
112.56
  20
231.91
  0
VERTEX
  8
MMIC_Label
  10
113.55
  20
233.56
  0
VERTEX
  8
MMIC_Label
  10
114.87
  20
229.6
  0
VERTEX
  8
MMIC_Label
  10
118.5
  20
229.6
  0
VERTEX
  8
MMIC_Label
  10
118.5
  20
246.1
  0
VERTEX
  8
MMIC_Label
  10
105.96
  20
246.1
  0
VERTEX
  8
MMIC_Label
  10
105.96
  20
241.15
  0
VERTEX
  8
MMIC_Label
  10
111.9
  20
241.15
  0
VERTEX
  8
MMIC_Label
  10
111.57
  20
239.5
  0
VERTEX
  8
MMIC_Label
  10
110.91
  20
237.85
  0
VERTEX
  8
MMIC_Label
  10
109.92
  20
236.53
  0
VERTEX
  8
MMIC_Label
  10
108.6
  20
235.54
  0
VERTEX
  8
MMIC_Label
  10
107.28
  20
234.88
  0
VERTEX
  8
MMIC_Label
  10
105.3
  20
234.55
  0
VERTEX
  8
MMIC_Label
  10
103.65
  20
234.88
  0
VERTEX
  8
MMIC_Label
  10
102
  20
235.54
  0
VERTEX
  8
MMIC_Label
  10
100.68
  20
236.53
  0
VERTEX
  8
MMIC_Label
  10
99.36
  20
238.18
  0
VERTEX
  8
MMIC_Label
  10
98.7
  20
239.83
  0
VERTEX
  8
MMIC_Label
  10
98.04
  20
241.81
  0
VERTEX
  8
MMIC_Label
  10
97.71
  20
243.79
  0
VERTEX
  8
MMIC_Label
  10
97.71
  20
248.41
  0
VERTEX
  8
MMIC_Label
  10
98.04
  20
250.39
  0
VERTEX
  8
MMIC_Label
  10
98.7
  20
252.37
  0
VERTEX
  8
MMIC_Label
  10
99.36
  20
254.02
  0
VERTEX
  8
MMIC_Label
  10
100.68
  20
255.67
  0
VERTEX
  8
MMIC_Label
  10
102
  20
256.66
  0
VERTEX
  8
MMIC_Label
  10
103.65
  20
257.32
  0
VERTEX
  8
MMIC_Label
  10
105.3
  20
257.65
  0
VERTEX
  8
MMIC_Label
  10
107.28
  20
257.32
  0
VERTEX
  8
MMIC_Label
  10
108.93
  20
256.33
  0
VERTEX
  8
MMIC_Label
  10
110.25
  20
255.34
  0
VERTEX
  8
MMIC_Label
  10
111.24
  20
253.69
  0
VERTEX
  8
MMIC_Label
  10
111.9
  20
252.04
  0
SEQEND
  0
POLYLINE
  8
MMIC_Label
  70
1
  66
1
  0
VERTEX
  8
MMIC_Label
  10
-524.94
  20
220.69
  0
VERTEX
  8
MMIC_Label
  10
-529.119
  20
228.326
  0
VERTEX
  8
MMIC_Label
  10
-525.236
  20
235.119
  0
VERTEX
  8
MMIC_Label
  10
-528.061
  20
235.119
  0
VERTEX
  8
MMIC_Label
  10
-529.954
  20
231.709
  0
VERTEX
  8
MMIC_Label
  10
-530.346
  20
231.016
  0
VERTEX
  8
MMIC_Label
  10
-530.811
  20
230.119
  0
VERTEX
  8
MMIC_Label
  10
-531.108
  20
230.772
  0
VERTEX
  8
MMIC_Label
  10
-531.594
  20
231.736
  0
VERTEX
  8
MMIC_Label
  10
-533.319
  20
235.119
  0
VERTEX
  8
MMIC_Label
  10
-536.249
  20
235.119
  0
VERTEX
  8
MMIC_Label
  10
-532.451
  20
228.19
  0
VERTEX
  8
MMIC_Label
  10
-536.556
  20
220.69
  0
VERTEX
  8
MMIC_Label
  10
-533.7
  20
220.69
  0
VERTEX
  8
MMIC_Label
  10
-530.748
  20
226.383
  0
VERTEX
  8
MMIC_Label
  10
-530.134
  20
225.174
  0
VERTEX
  8
MMIC_Label
  10
-527.828
  20
220.69
  0
SEQEND
  0
POLYLINE
  8
MMIC_Label
  70
1
  66
1
  0
VERTEX
  8
MMIC_Label
  10
-553.961
  20
220.69
  0
VERTEX
  8
MMIC_Label
  10
-558.14
  20
228.326
  0
VERTEX
  8
MMIC_Label
  10
-554.257
  20
235.119
  0
VERTEX
  8
MMIC_Label
  10
-556.532
  20
235.119
  0
VERTEX
  8
MMIC_Label
  10
-558.425
  20
231.709
  0
VERTEX
  8
MMIC_Label
  10
-558.817
  20
231.016
  0
VERTEX
  8
MMIC_Label
  10
-559.282
  20
230.119
  0
VERTEX
  8
MMIC_Label
  10
-559.579
  20
230.772
  0
VERTEX
  8
MMIC_Label
  10
-560.065
  20
231.736
  0
VERTEX
  8
MMIC_Label
  10
-561.79
  20
235.119
  0
VERTEX
  8
MMIC_Label
  10
-564.17
  20
235.119
  0
VERTEX
  8
MMIC_Label
  10
-560.372
  20
228.19
  0
VERTEX
  8
MMIC_Label
  10
-564.477
  20
220.69
  0
VERTEX
  8
MMIC_Label
  10
-562.171
  20
220.69
  0
VERTEX
  8
MMIC_Label
  10
-559.219
  20
226.383
  0
VERTEX
  8
MMIC_Label
  10
-558.605
  20
225.174
  0
VERTEX
  8
MMIC_Label
  10
-556.299
  20
220.69
  0
SEQEND
  0
POLYLINE
  8
MMIC_Label
  70
1
  66
1
  0
VERTEX
  8
MMIC_Label
  10
-578.1
  20
296.4
  0
VERTEX
  8
MMIC_Label
  10
-578.1
  20
298.5
  0
VERTEX
  8
MMIC_Label
  10
-579.2
  20
300.4
  0
VERTEX
  8
MMIC_Label
  10
-580.4
  20
301.4
  0
VERTEX
  8
MMIC_Label
  10
-583
  20
302.3
  0
VERTEX
  8
MMIC_Label
  10
-591.2
  20
302.3
  0
VERTEX
  8
MMIC_Label
  10
-591.2
  20
285.8
  0
VERTEX
  8
MMIC_Label
  10
-588.2
  20
285.8
  0
VERTEX
  8
MMIC_Label
  10
-588.2
  20
299.3
  0
VERTEX
  8
MMIC_Label
  10
-583.5
  20
299.3
  0
VERTEX
  8
MMIC_Label
  10
-581.9
  20
298.7
  0
VERTEX
  8
MMIC_Label
  10
-581.6
  20
298.5
  0
VERTEX
  8
MMIC_Label
  10
-581.1
  20
297.7
  0
VERTEX
  8
MMIC_Label
  10
-581.1
  20
297.1
  0
VERTEX
  8
MMIC_Label
  10
-581.8
  20
295.8
  0
VERTEX
  8
MMIC_Label
  10
-582
  20
295.7
  0
VERTEX
  8
MMIC_Label
  10
-583.6
  20
295.1
  0
VERTEX
  8
MMIC_Label
  10
-586.7
  20
295.1
  0
VERTEX
  8
MMIC_Label
  10
-586.7
  20
292.1
  0
VERTEX
  8
MMIC_Label
  10
-585.4
  20
292.1
  0
VERTEX
  8
MMIC_Label
  10
-580.9
  20
285
  0
VERTEX
  8
MMIC_Label
  10
-578.4
  20
286.6
  0
VERTEX
  8
MMIC_Label
  10
-582.1
  20
292.5
  0
VERTEX
  8
MMIC_Label
  10
-580.3
  20
293
  0
VERTEX
  8
MMIC_Label
  10
-579.3
  20
294.1
  0
SEQEND
  0
POLYLINE
  8
MMIC_Label
  70
1
  66
1
  0
VERTEX
  8
MMIC_Label
  10
130.51
  20
249.4
  0
VERTEX
  8
MMIC_Label
  10
130.51
  20
256.99
  0
VERTEX
  8
MMIC_Label
  10
141.07
  20
256.99
  0
VERTEX
  8
MMIC_Label
  10
143.05
  20
255.67
  0
VERTEX
  8
MMIC_Label
  10
143.38
  20
254.35
  0
VERTEX
  8
MMIC_Label
  10
143.71
  20
253.36
  0
VERTEX
  8
MMIC_Label
  10
143.38
  20
252.04
  0
VERTEX
  8
MMIC_Label
  10
143.05
  20
251.05
  0
VERTEX
  8
MMIC_Label
  10
142.06
  20
250.06
  0
VERTEX
  8
MMIC_Label
  10
141.07
  20
249.73
  0
VERTEX
  8
MMIC_Label
  10
139.75
  20
249.4
  0
SEQEND
  0
POLYLINE
  8
MMIC_Label
  70
1
  66
1
  0
VERTEX
  8
MMIC_Label
  10
130.51
  20
235.21
  0
VERTEX
  8
MMIC_Label
  10
130.51
  20
243.79
  0
VERTEX
  8
MMIC_Label
  10
141.73
  20
243.79
  0
VERTEX
  8
MMIC_Label
  10
143.05
  20
243.13
  0
VERTEX
  8
MMIC_Label
  10
144.04
  20
242.14
  0
VERTEX
  8
MMIC_Label
  10
144.7
  20
240.82
  0
VERTEX
  8
MMIC_Label
  10
144.7
  20
238.18
  0
VERTEX
  8
MMIC_Label
  10
144.04
  20
236.86
  0
VERTEX
  8
MMIC_Label
  10
143.05
  20
235.87
  0
VERTEX
  8
MMIC_Label
  10
141.73
  20
235.21
  0
SEQEND
  0
POLYLINE
  8
MMIC_Label
  70
1
  66
1
  0
VERTEX
  8
MMIC_Label
  10
118.5
  20
252.04
  0
VERTEX
  8
MMIC_Label
  10
117.84
  20
254.35
  0
VERTEX
  8
MMIC_Label
  10
116.85
  20
256.66
  0
VERTEX
  8
MMIC_Label
  10
115.53
  20
258.31
  0
VERTEX
  8
MMIC_Label
  10
113.88
  20
259.96
  0
VERTEX
  8
MMIC_Label
  10
112.23
  20
261.28
  0
VERTEX
  8
MMIC_Label
  10
109.92
  20
262.27
  0
VERTEX
  8
MMIC_Label
  10
107.94
  20
262.6
  0
VERTEX
  8
MMIC_Label
  10
102.66
  20
262.6
  0
VERTEX
  8
MMIC_Label
  10
100.35
  20
262.27
  0
VERTEX
  8
MMIC_Label
  10
98.04
  20
260.95
  0
VERTEX
  8
MMIC_Label
  10
96.39
  20
259.63
  0
VERTEX
  8
MMIC_Label
  10
94.74
  20
257.98
  0
VERTEX
  8
MMIC_Label
  10
93.42
  20
255.67
  0
VERTEX
  8
MMIC_Label
  10
92.43
  20
253.69
  0
VERTEX
  8
MMIC_Label
  10
91.77
  20
251.05
  0
VERTEX
  8
MMIC_Label
  10
91.44
  20
248.74
  0
VERTEX
  8
MMIC_Label
  10
91.11
  20
246.1
  0
VERTEX
  8
MMIC_Label
  10
91.44
  20
243.46
  0
VERTEX
  8
MMIC_Label
  10
91.77
  20
241.15
  0
VERTEX
  8
MMIC_Label
  10
92.43
  20
238.51
  0
VERTEX
  8
MMIC_Label
  10
93.42
  20
236.53
  0
VERTEX
  8
MMIC_Label
  10
94.74
  20
234.22
  0
VERTEX
  8
MMIC_Label
  10
96.39
  20
232.57
  0
VERTEX
  8
MMIC_Label
  10
98.04
  20
231.25
  0
VERTEX
  8
MMIC_Label
  10
100.35
  20
229.93
  0
VERTEX
  8
MMIC_Label
  10
102.66
  20
229.6
  0
VERTEX
  8
MMIC_Label
  10
107.28
  20
229.6
  0
VERTEX
  8
MMIC_Label
  10
109.26
  20
229.93
  0
VERTEX
  8
MMIC_Label
  10
112.56
  20
231.91
  0
VERTEX
  8
MMIC_Label
  10
113.55
  20
233.56
  0
VERTEX
  8
MMIC_Label
  10
114.87
  20
229.6
  0
VERTEX
  8
MMIC_Label
  10
118.5
  20
229.6
  0
VERTEX
  8
MMIC_Label
  10
118.5
  20
246.1
  0
VERTEX
  8
MMIC_Label
  10
105.96
  20
246.1
  0
VERTEX
  8
MMIC_Label
  10
105.96
  20
241.15
  0
VERTEX
  8
MMIC_Label
  10
111.9
  20
241.15
  0
VERTEX
  8
MMIC_Label
  10
111.57
  20
239.5
  0
VERTEX
  8
MMIC_Label
  10
110.91
  20
237.85
  0
VERTEX
  8
MMIC_Label
  10
109.92
  20
236.53
  0
VERTEX
  8
MMIC_Label
  10
108.6
  20
235.54
  0
VERTEX
  8
MMIC_Label
  10
107.28
  20
234.88
  0
VERTEX
  8
MMIC_Label
  10
105.3
  20
234.55
  0
VERTEX
  8
MMIC_Label
  10
103.65
  20
234.88
  0
VERTEX
  8
MMIC_Label
  10
102
  20
235.54
  0
VERTEX
  8
MMIC_Label
  10
100.68
  20
236.53
  0
VERTEX
  8
MMIC_Label
  10
99.36
  20
238.18
  0
VERTEX
  8
MMIC_Label
  10
98.7
  20
239.83
  0
VERTEX
  8
MMIC_Label
  10
98.04
  20
241.81
  0
VERTEX
  8
MMIC_Label
  10
97.71
  20
243.79
  0
VERTEX
  8
MMIC_Label
  10
97.71
  20
248.41
  0
VERTEX
  8
MMIC_Label
  10
98.04
  20
250.39
  0
VERTEX
  8
MMIC_Label
  10
98.7
  20
252.37
  0
VERTEX
  8
MMIC_Label
  10
99.36
  20
254.02
  0
VERTEX
  8
MMIC_Label
  10
100.68
  20
255.67
  0
VERTEX
  8
MMIC_Label
  10
102
  20
256.66
  0
VERTEX
  8
MMIC_Label
  10
103.65
  20
257.32
  0
VERTEX
  8
MMIC_Label
  10
105.3
  20
257.65
  0
VERTEX
  8
MMIC_Label
  10
107.28
  20
257.32
  0
VERTEX
  8
MMIC_Label
  10
108.93
  20
256.33
  0
VERTEX
  8
MMIC_Label
  10
110.25
  20
255.34
  0
VERTEX
  8
MMIC_Label
  10
111.24
  20
253.69
  0
VERTEX
  8
MMIC_Label
  10
111.9
  20
252.04
  0
SEQEND
  0
POLYLINE
  8
MMIC_Label
  70
1
  66
1
  0
VERTEX
  8
MMIC_Label
  10
-581.7
  20
310.6
  0
VERTEX
  8
MMIC_Label
  10
-556.7
  20
310.6
  0
VERTEX
  8
MMIC_Label
  10
-556.7
  20
305.6
  0
VERTEX
  8
MMIC_Label
  10
-581.7
  20
305.6
  0
SEQEND
  0
POLYLINE
  8
MMIC_Label
  70
1
  66
1
  0
VERTEX
  8
MMIC_Label
  10
-586.7
  20
251.2
  0
VERTEX
  8
MMIC_Label
  10
-601.7
  20
251.2
  0
VERTEX
  8
MMIC_Label
  10
-601.7
  20
246.2
  0
VERTEX
  8
MMIC_Label
  10
-586.7
  20
246.2
  0
SEQEND
  0
POLYLINE
  8
MMIC_Label
  70
1
  66
1
  0
VERTEX
  8
MMIC_Label
  10
-560.372
  20
228.19
  0
VERTEX
  8
MMIC_Label
  10
-564.17
  20
235.119
  0
VERTEX
  8
MMIC_Label
  10
-561.79
  20
235.119
  0
VERTEX
  8
MMIC_Label
  10
-560.065
  20
231.736
  0
VERTEX
  8
MMIC_Label
  10
-559.579
  20
230.772
  0
VERTEX
  8
MMIC_Label
  10
-559.282
  20
230.119
  0
VERTEX
  8
MMIC_Label
  10
-558.817
  20
231.016
  0
VERTEX
  8
MMIC_Label
  10
-558.425
  20
231.709
  0
VERTEX
  8
MMIC_Label
  10
-556.532
  20
235.119
  0
VERTEX
  8
MMIC_Label
  10
-554.257
  20
235.119
  0
VERTEX
  8
MMIC_Label
  10
-558.14
  20
228.326
  0
VERTEX
  8
MMIC_Label
  10
-553.961
  20
220.69
  0
VERTEX
  8
MMIC_Label
  10
-556.299
  20
220.69
  0
VERTEX
  8
MMIC_Label
  10
-558.605
  20
225.174
  0
VERTEX
  8
MMIC_Label
  10
-559.219
  20
226.383
  0
VERTEX
  8
MMIC_Label
  10
-562.171
  20
220.69
  0
VERTEX
  8
MMIC_Label
  10
-564.477
  20
220.69
  0
SEQEND
  0
POLYLINE
  8
MMIC_Label
  70
1
  66
1
  0
VERTEX
  8
MMIC_Label
  10
-561.7
  20
271.3
  0
VERTEX
  8
MMIC_Label
  10
-546.7
  20
271.3
  0
VERTEX
  8
MMIC_Label
  10
-546.7
  20
256.3
  0
VERTEX
  8
MMIC_Label
  10
-561.7
  20
256.3
  0
SEQEND
  0
POLYLINE
  8
MMIC_Label
  70
1
  66
1
  0
VERTEX
  8
MMIC_Label
  10
-416.7
  20
246.2
  0
VERTEX
  8
MMIC_Label
  10
-416.7
  20
310.6
  0
VERTEX
  8
MMIC_Label
  10
-421.7
  20
310.6
  0
VERTEX
  8
MMIC_Label
  10
-421.7
  20
246.2
  0
SEQEND
  0
POLYLINE
  8
MMIC_Label
  70
1
  66
1
  0
VERTEX
  8
MMIC_Label
  10
314.31
  20
303.34
  0
VERTEX
  8
MMIC_Label
  10
313.32
  20
305.32
  0
VERTEX
  8
MMIC_Label
  10
312
  20
307.3
  0
VERTEX
  8
MMIC_Label
  10
310.35
  20
308.62
  0
VERTEX
  8
MMIC_Label
  10
306.39
  20
310.6
  0
VERTEX
  8
MMIC_Label
  10
299.46
  20
310.6
  0
VERTEX
  8
MMIC_Label
  10
297.15
  20
310.27
  0
VERTEX
  8
MMIC_Label
  10
294.84
  20
308.95
  0
VERTEX
  8
MMIC_Label
  10
292.86
  20
307.63
  0
VERTEX
  8
MMIC_Label
  10
291.54
  20
305.98
  0
VERTEX
  8
MMIC_Label
  10
290.22
  20
303.67
  0
VERTEX
  8
MMIC_Label
  10
289.23
  20
301.69
  0
VERTEX
  8
MMIC_Label
  10
288.24
  20
299.05
  0
VERTEX
  8
MMIC_Label
  10
287.91
  20
296.74
  0
VERTEX
  8
MMIC_Label
  10
287.91
  20
291.46
  0
VERTEX
  8
MMIC_Label
  10
288.24
  20
289.15
  0
VERTEX
  8
MMIC_Label
  10
289.23
  20
286.51
  0
VERTEX
  8
MMIC_Label
  10
290.22
  20
284.53
  0
VERTEX
  8
MMIC_Label
  10
291.54
  20
282.22
  0
VERTEX
  8
MMIC_Label
  10
292.86
  20
280.57
  0
VERTEX
  8
MMIC_Label
  10
294.84
  20
279.25
  0
VERTEX
  8
MMIC_Label
  10
297.15
  20
277.93
  0
VERTEX
  8
MMIC_Label
  10
299.46
  20
277.6
  0
VERTEX
  8
MMIC_Label
  10
306.39
  20
277.6
  0
VERTEX
  8
MMIC_Label
  10
308.37
  20
278.26
  0
VERTEX
  8
MMIC_Label
  10
310.35
  20
279.58
  0
VERTEX
  8
MMIC_Label
  10
312
  20
280.9
  0
VERTEX
  8
MMIC_Label
  10
313.32
  20
282.22
  0
VERTEX
  8
MMIC_Label
  10
314.64
  20
284.2
  0
VERTEX
  8
MMIC_Label
  10
315.3
  20
286.18
  0
VERTEX
  8
MMIC_Label
  10
315.3
  20
288.49
  0
VERTEX
  8
MMIC_Label
  10
314.97
  20
290.8
  0
VERTEX
  8
MMIC_Label
  10
314.31
  20
293.11
  0
VERTEX
  8
MMIC_Label
  10
311.67
  20
296.41
  0
VERTEX
  8
MMIC_Label
  10
307.71
  20
298.39
  0
VERTEX
  8
MMIC_Label
  10
305.4
  20
299.05
  0
VERTEX
  8
MMIC_Label
  10
303.42
  20
299.05
  0
VERTEX
  8
MMIC_Label
  10
300.78
  20
298.72
  0
VERTEX
  8
MMIC_Label
  10
298.47
  20
298.06
  0
VERTEX
  8
MMIC_Label
  10
296.49
  20
296.74
  0
VERTEX
  8
MMIC_Label
  10
294.51
  20
295.09
  0
VERTEX
  8
MMIC_Label
  10
294.51
  20
297.07
  0
VERTEX
  8
MMIC_Label
  10
294.84
  20
298.72
  0
VERTEX
  8
MMIC_Label
  10
295.5
  20
300.7
  0
VERTEX
  8
MMIC_Label
  10
297.48
  20
304
  0
VERTEX
  8
MMIC_Label
  10
298.8
  20
304.99
  0
VERTEX
  8
MMIC_Label
  10
300.78
  20
305.98
  0
VERTEX
  8
MMIC_Label
  10
302.76
  20
306.31
  0
VERTEX
  8
MMIC_Label
  10
304.41
  20
305.98
  0
VERTEX
  8
MMIC_Label
  10
307.05
  20
304.66
  0
VERTEX
  8
MMIC_Label
  10
308.37
  20
303.34
  0
SEQEND
  0
POLYLINE
  8
MMIC_Label
  70
1
  66
1
  0
VERTEX
  8
MMIC_Label
  10
-466.7
  20
251.2
  0
VERTEX
  8
MMIC_Label
  10
-491.7
  20
251.2
  0
VERTEX
  8
MMIC_Label
  10
-491.7
  20
246.2
  0
VERTEX
  8
MMIC_Label
  10
-466.7
  20
246.2
  0
SEQEND
  0
POLYLINE
  8
MMIC_Label
  70
1
  66
1
  0
VERTEX
  8
MMIC_Label
  10
-431.675
  20
240.79
  0
VERTEX
  8
MMIC_Label
  10
-434.091
  20
240.79
  0
VERTEX
  8
MMIC_Label
  10
-435.417
  20
237.351
  0
VERTEX
  8
MMIC_Label
  10
-435.956
  20
236.732
  0
VERTEX
  8
MMIC_Label
  10
-437.588
  20
235.746
  0
VERTEX
  8
MMIC_Label
  10
-437.588
  20
233.222
  0
VERTEX
  8
MMIC_Label
  10
-437.564
  20
233.206
  0
VERTEX
  8
MMIC_Label
  10
-437.539
  20
233.191
  0
VERTEX
  8
MMIC_Label
  10
-436.548
  20
233.661
  0
VERTEX
  8
MMIC_Label
  10
-435.423
  20
234.509
  0
VERTEX
  8
MMIC_Label
  10
-435.419
  20
234.512
  0
VERTEX
  8
MMIC_Label
  10
-435.137
  20
234.857
  0
VERTEX
  8
MMIC_Label
  10
-435.137
  20
234.82
  0
VERTEX
  8
MMIC_Label
  10
-434.209
  20
234.82
  0
VERTEX
  8
MMIC_Label
  10
-434.209
  20
220.59
  0
VERTEX
  8
MMIC_Label
  10
-431.675
  20
220.59
  0
SEQEND
  0
POLYLINE
  8
MMIC_Label
  70
1
  66
1
  0
VERTEX
  8
MMIC_Label
  10
254.7
  20
300.04
  0
VERTEX
  8
MMIC_Label
  10
254.04
  20
302.35
  0
VERTEX
  8
MMIC_Label
  10
253.05
  20
304.66
  0
VERTEX
  8
MMIC_Label
  10
251.73
  20
306.31
  0
VERTEX
  8
MMIC_Label
  10
250.08
  20
307.96
  0
VERTEX
  8
MMIC_Label
  10
248.43
  20
309.28
  0
VERTEX
  8
MMIC_Label
  10
246.12
  20
310.27
  0
VERTEX
  8
MMIC_Label
  10
244.14
  20
310.6
  0
VERTEX
  8
MMIC_Label
  10
238.86
  20
310.6
  0
VERTEX
  8
MMIC_Label
  10
236.55
  20
310.27
  0
VERTEX
  8
MMIC_Label
  10
234.24
  20
308.95
  0
VERTEX
  8
MMIC_Label
  10
232.59
  20
307.63
  0
VERTEX
  8
MMIC_Label
  10
230.94
  20
305.98
  0
VERTEX
  8
MMIC_Label
  10
229.62
  20
303.67
  0
VERTEX
  8
MMIC_Label
  10
228.63
  20
301.69
  0
VERTEX
  8
MMIC_Label
  10
227.97
  20
299.05
  0
VERTEX
  8
MMIC_Label
  10
227.64
  20
296.74
  0
VERTEX
  8
MMIC_Label
  10
227.31
  20
294.1
  0
VERTEX
  8
MMIC_Label
  10
227.64
  20
291.46
  0
VERTEX
  8
MMIC_Label
  10
227.97
  20
289.15
  0
VERTEX
  8
MMIC_Label
  10
228.63
  20
286.51
  0
VERTEX
  8
MMIC_Label
  10
229.62
  20
284.53
  0
VERTEX
  8
MMIC_Label
  10
230.94
  20
282.22
  0
VERTEX
  8
MMIC_Label
  10
232.59
  20
280.57
  0
VERTEX
  8
MMIC_Label
  10
234.24
  20
279.25
  0
VERTEX
  8
MMIC_Label
  10
236.55
  20
277.93
  0
VERTEX
  8
MMIC_Label
  10
238.86
  20
277.6
  0
VERTEX
  8
MMIC_Label
  10
243.48
  20
277.6
  0
VERTEX
  8
MMIC_Label
  10
245.46
  20
277.93
  0
VERTEX
  8
MMIC_Label
  10
248.76
  20
279.91
  0
VERTEX
  8
MMIC_Label
  10
249.75
  20
281.56
  0
VERTEX
  8
MMIC_Label
  10
251.07
  20
277.6
  0
VERTEX
  8
MMIC_Label
  10
254.7
  20
277.6
  0
VERTEX
  8
MMIC_Label
  10
254.7
  20
294.1
  0
VERTEX
  8
MMIC_Label
  10
242.16
  20
294.1
  0
VERTEX
  8
MMIC_Label
  10
242.16
  20
289.15
  0
VERTEX
  8
MMIC_Label
  10
248.1
  20
289.15
  0
VERTEX
  8
MMIC_Label
  10
247.77
  20
287.5
  0
VERTEX
  8
MMIC_Label
  10
247.11
  20
285.85
  0
VERTEX
  8
MMIC_Label
  10
246.12
  20
284.53
  0
VERTEX
  8
MMIC_Label
  10
244.8
  20
283.54
  0
VERTEX
  8
MMIC_Label
  10
243.48
  20
282.88
  0
VERTEX
  8
MMIC_Label
  10
241.5
  20
282.55
  0
VERTEX
  8
MMIC_Label
  10
239.85
  20
282.88
  0
VERTEX
  8
MMIC_Label
  10
238.2
  20
283.54
  0
VERTEX
  8
MMIC_Label
  10
236.88
  20
284.53
  0
VERTEX
  8
MMIC_Label
  10
235.56
  20
286.18
  0
VERTEX
  8
MMIC_Label
  10
234.9
  20
287.83
  0
VERTEX
  8
MMIC_Label
  10
234.24
  20
289.81
  0
VERTEX
  8
MMIC_Label
  10
233.91
  20
291.79
  0
VERTEX
  8
MMIC_Label
  10
233.91
  20
296.41
  0
VERTEX
  8
MMIC_Label
  10
234.24
  20
298.39
  0
VERTEX
  8
MMIC_Label
  10
234.9
  20
300.37
  0
VERTEX
  8
MMIC_Label
  10
235.56
  20
302.02
  0
VERTEX
  8
MMIC_Label
  10
236.88
  20
303.67
  0
VERTEX
  8
MMIC_Label
  10
238.2
  20
304.66
  0
VERTEX
  8
MMIC_Label
  10
239.85
  20
305.32
  0
VERTEX
  8
MMIC_Label
  10
241.5
  20
305.65
  0
VERTEX
  8
MMIC_Label
  10
243.48
  20
305.32
  0
VERTEX
  8
MMIC_Label
  10
245.13
  20
304.33
  0
VERTEX
  8
MMIC_Label
  10
246.45
  20
303.34
  0
VERTEX
  8
MMIC_Label
  10
247.44
  20
301.69
  0
VERTEX
  8
MMIC_Label
  10
248.1
  20
300.04
  0
SEQEND
  0
POLYLINE
  8
MMIC_Label
  70
1
  66
1
  0
VERTEX
  8
MMIC_Label
  10
123.91
  20
229.6
  0
VERTEX
  8
MMIC_Label
  10
123.91
  20
262.6
  0
VERTEX
  8
MMIC_Label
  10
140.41
  20
262.6
  0
VERTEX
  8
MMIC_Label
  10
144.37
  20
261.94
  0
VERTEX
  8
MMIC_Label
  10
146.35
  20
260.95
  0
VERTEX
  8
MMIC_Label
  10
148
  20
259.96
  0
VERTEX
  8
MMIC_Label
  10
149.98
  20
256.66
  0
VERTEX
  8
MMIC_Label
  10
150.31
  20
254.35
  0
VERTEX
  8
MMIC_Label
  10
149.65
  20
251.05
  0
VERTEX
  8
MMIC_Label
  10
148.66
  20
249.4
  0
VERTEX
  8
MMIC_Label
  10
147.34
  20
248.08
  0
VERTEX
  8
MMIC_Label
  10
146.02
  20
247.42
  0
VERTEX
  8
MMIC_Label
  10
144.37
  20
246.76
  0
VERTEX
  8
MMIC_Label
  10
146.02
  20
246.1
  0
VERTEX
  8
MMIC_Label
  10
147.67
  20
245.11
  0
VERTEX
  8
MMIC_Label
  10
149.32
  20
243.79
  0
VERTEX
  8
MMIC_Label
  10
151.3
  20
240.49
  0
VERTEX
  8
MMIC_Label
  10
151.3
  20
238.51
  0
VERTEX
  8
MMIC_Label
  10
150.97
  20
236.2
  0
VERTEX
  8
MMIC_Label
  10
150.31
  20
234.22
  0
VERTEX
  8
MMIC_Label
  10
148.99
  20
232.57
  0
VERTEX
  8
MMIC_Label
  10
147.34
  20
231.25
  0
VERTEX
  8
MMIC_Label
  10
145.69
  20
230.26
  0
VERTEX
  8
MMIC_Label
  10
143.71
  20
229.93
  0
VERTEX
  8
MMIC_Label
  10
141.4
  20
229.6
  0
SEQEND
  0
POLYLINE
  8
MMIC_Label
  70
1
  66
1
  0
VERTEX
  8
MMIC_Label
  10
-441.7
  20
271.3
  0
VERTEX
  8
MMIC_Label
  10
-426.7
  20
271.3
  0
VERTEX
  8
MMIC_Label
  10
-426.7
  20
256.3
  0
VERTEX
  8
MMIC_Label
  10
-441.7
  20
256.3
  0
SEQEND
  0
POLYLINE
  8
MMIC_Label
  70
1
  66
1
  0
VERTEX
  8
MMIC_Label
  10
-476.7
  20
246.2
  0
VERTEX
  8
MMIC_Label
  10
-476.7
  20
310.6
  0
VERTEX
  8
MMIC_Label
  10
-481.7
  20
310.6
  0
VERTEX
  8
MMIC_Label
  10
-481.7
  20
246.2
  0
SEQEND
  0
POLYLINE
  8
MMIC_Label
  70
1
  66
1
  0
VERTEX
  8
MMIC_Label
  10
-531.7
  20
271.3
  0
VERTEX
  8
MMIC_Label
  10
-516.7
  20
271.3
  0
VERTEX
  8
MMIC_Label
  10
-516.7
  20
256.3
  0
VERTEX
  8
MMIC_Label
  10
-531.7
  20
256.3
  0
SEQEND
  0
POLYLINE
  8
MMIC_Label
  70
1
  66
1
  0
VERTEX
  8
MMIC_Label
  10
123.91
  20
229.6
  0
VERTEX
  8
MMIC_Label
  10
123.91
  20
262.6
  0
VERTEX
  8
MMIC_Label
  10
140.41
  20
262.6
  0
VERTEX
  8
MMIC_Label
  10
144.37
  20
261.94
  0
VERTEX
  8
MMIC_Label
  10
146.35
  20
260.95
  0
VERTEX
  8
MMIC_Label
  10
148
  20
259.96
  0
VERTEX
  8
MMIC_Label
  10
149.98
  20
256.66
  0
VERTEX
  8
MMIC_Label
  10
150.31
  20
254.35
  0
VERTEX
  8
MMIC_Label
  10
149.65
  20
251.05
  0
VERTEX
  8
MMIC_Label
  10
148.66
  20
249.4
  0
VERTEX
  8
MMIC_Label
  10
147.34
  20
248.08
  0
VERTEX
  8
MMIC_Label
  10
146.02
  20
247.42
  0
VERTEX
  8
MMIC_Label
  10
144.37
  20
246.76
  0
VERTEX
  8
MMIC_Label
  10
146.02
  20
246.1
  0
VERTEX
  8
MMIC_Label
  10
147.67
  20
245.11
  0
VERTEX
  8
MMIC_Label
  10
149.32
  20
243.79
  0
VERTEX
  8
MMIC_Label
  10
151.3
  20
240.49
  0
VERTEX
  8
MMIC_Label
  10
151.3
  20
238.51
  0
VERTEX
  8
MMIC_Label
  10
150.97
  20
236.2
  0
VERTEX
  8
MMIC_Label
  10
150.31
  20
234.22
  0
VERTEX
  8
MMIC_Label
  10
148.99
  20
232.57
  0
VERTEX
  8
MMIC_Label
  10
147.34
  20
231.25
  0
VERTEX
  8
MMIC_Label
  10
145.69
  20
230.26
  0
VERTEX
  8
MMIC_Label
  10
143.71
  20
229.93
  0
VERTEX
  8
MMIC_Label
  10
141.4
  20
229.6
  0
SEQEND
  0
POLYLINE
  8
MMIC_Label
  70
1
  66
1
  0
VERTEX
  8
MMIC_Label
  10
130.51
  20
249.4
  0
VERTEX
  8
MMIC_Label
  10
130.51
  20
256.99
  0
VERTEX
  8
MMIC_Label
  10
141.07
  20
256.99
  0
VERTEX
  8
MMIC_Label
  10
143.05
  20
255.67
  0
VERTEX
  8
MMIC_Label
  10
143.38
  20
254.35
  0
VERTEX
  8
MMIC_Label
  10
143.71
  20
253.36
  0
VERTEX
  8
MMIC_Label
  10
143.38
  20
252.04
  0
VERTEX
  8
MMIC_Label
  10
143.05
  20
251.05
  0
VERTEX
  8
MMIC_Label
  10
142.06
  20
250.06
  0
VERTEX
  8
MMIC_Label
  10
141.07
  20
249.73
  0
VERTEX
  8
MMIC_Label
  10
139.75
  20
249.4
  0
SEQEND
  0
POLYLINE
  8
MMIC_Label
  70
1
  66
1
  0
VERTEX
  8
MMIC_Label
  10
-271.936
  20
273.627
  0
VERTEX
  8
MMIC_Label
  10
-271.933
  20
273.626
  0
VERTEX
  8
MMIC_Label
  10
-271.929
  20
273.625
  0
VERTEX
  8
MMIC_Label
  10
-271.926
  20
273.623
  0
VERTEX
  8
MMIC_Label
  10
-271.922
  20
273.622
  0
VERTEX
  8
MMIC_Label
  10
-271.918
  20
273.619
  0
VERTEX
  8
MMIC_Label
  10
-271.916
  20
273.616
  0
VERTEX
  8
MMIC_Label
  10
-271.913
  20
273.614
  0
VERTEX
  8
MMIC_Label
  10
-271.91
  20
273.61
  0
VERTEX
  8
MMIC_Label
  10
-271.909
  20
273.606
  0
VERTEX
  8
MMIC_Label
  10
-271.907
  20
273.603
  0
VERTEX
  8
MMIC_Label
  10
-271.906
  20
273.599
  0
VERTEX
  8
MMIC_Label
  10
-271.905
  20
273.596
  0
VERTEX
  8
MMIC_Label
  10
-271.904
  20
273.592
  0
VERTEX
  8
MMIC_Label
  10
-271.904
  20
273.584
  0
VERTEX
  8
MMIC_Label
  10
-271.903
  20
273.58
  0
VERTEX
  8
MMIC_Label
  10
-271.902
  20
273.577
  0
VERTEX
  8
MMIC_Label
  10
-271.901
  20
273.573
  0
VERTEX
  8
MMIC_Label
  10
-271.899
  20
273.57
  0
VERTEX
  8
MMIC_Label
  10
-271.898
  20
273.566
  0
VERTEX
  8
MMIC_Label
  10
-271.895
  20
273.562
  0
VERTEX
  8
MMIC_Label
  10
-271.892
  20
273.56
  0
VERTEX
  8
MMIC_Label
  10
-271.89
  20
273.557
  0
VERTEX
  8
MMIC_Label
  10
-271.886
  20
273.554
  0
VERTEX
  8
MMIC_Label
  10
-271.882
  20
273.553
  0
VERTEX
  8
MMIC_Label
  10
-271.879
  20
273.551
  0
VERTEX
  8
MMIC_Label
  10
-271.875
  20
273.55
  0
VERTEX
  8
MMIC_Label
  10
-271.872
  20
273.549
  0
VERTEX
  8
MMIC_Label
  10
-271.868
  20
273.548
  0
VERTEX
  8
MMIC_Label
  10
-271.86
  20
273.548
  0
VERTEX
  8
MMIC_Label
  10
-271.856
  20
273.547
  0
VERTEX
  8
MMIC_Label
  10
-271.853
  20
273.546
  0
VERTEX
  8
MMIC_Label
  10
-271.849
  20
273.545
  0
VERTEX
  8
MMIC_Label
  10
-271.846
  20
273.543
  0
VERTEX
  8
MMIC_Label
  10
-271.842
  20
273.542
  0
VERTEX
  8
MMIC_Label
  10
-271.838
  20
273.539
  0
VERTEX
  8
MMIC_Label
  10
-271.836
  20
273.536
  0
VERTEX
  8
MMIC_Label
  10
-271.833
  20
273.534
  0
VERTEX
  8
MMIC_Label
  10
-271.83
  20
273.53
  0
VERTEX
  8
MMIC_Label
  10
-271.829
  20
273.526
  0
VERTEX
  8
MMIC_Label
  10
-271.827
  20
273.523
  0
VERTEX
  8
MMIC_Label
  10
-271.826
  20
273.519
  0
VERTEX
  8
MMIC_Label
  10
-271.825
  20
273.516
  0
VERTEX
  8
MMIC_Label
  10
-271.824
  20
273.512
  0
VERTEX
  8
MMIC_Label
  10
-271.824
  20
273.407
  0
VERTEX
  8
MMIC_Label
  10
-272.865
  20
267.102
  0
VERTEX
  8
MMIC_Label
  10
-272.903
  20
266.926
  0
VERTEX
  8
MMIC_Label
  10
-272.959
  20
266.754
  0
VERTEX
  8
MMIC_Label
  10
-273.032
  20
266.589
  0
VERTEX
  8
MMIC_Label
  10
-273.121
  20
266.431
  0
VERTEX
  8
MMIC_Label
  10
-273.226
  20
266.284
  0
VERTEX
  8
MMIC_Label
  10
-273.345
  20
266.147
  0
VERTEX
  8
MMIC_Label
  10
-273.476
  20
266.023
  0
VERTEX
  8
MMIC_Label
  10
-273.62
  20
265.914
  0
VERTEX
  8
MMIC_Label
  10
-273.774
  20
265.818
  0
VERTEX
  8
MMIC_Label
  10
-273.937
  20
265.739
  0
VERTEX
  8
MMIC_Label
  10
-274.106
  20
265.678
  0
VERTEX
  8
MMIC_Label
  10
-274.282
  20
265.632
  0
VERTEX
  8
MMIC_Label
  10
-274.46
  20
265.605
  0
VERTEX
  8
MMIC_Label
  10
-274.641
  20
265.596
  0
VERTEX
  8
MMIC_Label
  10
-294.042
  20
265.596
  0
VERTEX
  8
MMIC_Label
  10
-295.082
  20
265.676
  0
VERTEX
  8
MMIC_Label
  10
-295.806
  20
265.676
  0
VERTEX
  8
MMIC_Label
  10
-297.39
  20
266.006
  0
VERTEX
  8
MMIC_Label
  10
-297.732
  20
266.077
  0
VERTEX
  8
MMIC_Label
  10
-298.776
  20
266.318
  0
VERTEX
  8
MMIC_Label
  10
-300.222
  20
266.801
  0
VERTEX
  8
MMIC_Label
  10
-302.31
  20
267.846
  0
VERTEX
  8
MMIC_Label
  10
-304.08
  20
269.293
  0
VERTEX
  8
MMIC_Label
  10
-304.724
  20
270.098
  0
VERTEX
  8
MMIC_Label
  10
-305.526
  20
271.142
  0
VERTEX
  8
MMIC_Label
  10
-306.332
  20
272.671
  0
VERTEX
  8
MMIC_Label
  10
-306.655
  20
273.962
  0
VERTEX
  8
MMIC_Label
  10
-306.736
  20
274.766
  0
VERTEX
  8
MMIC_Label
  10
-306.896
  20
275.807
  0
VERTEX
  8
MMIC_Label
  10
-306.896
  20
277.016
  0
VERTEX
  8
MMIC_Label
  10
-306.735
  20
278.459
  0
VERTEX
  8
MMIC_Label
  10
-306.495
  20
279.745
  0
VERTEX
  8
MMIC_Label
  10
-306.172
  20
280.79
  0
VERTEX
  8
MMIC_Label
  10
-305.69
  20
281.915
  0
VERTEX
  8
MMIC_Label
  10
-305.29
  20
282.719
  0
VERTEX
  8
MMIC_Label
  10
-304.566
  20
283.924
  0
VERTEX
  8
MMIC_Label
  10
-303.443
  20
285.37
  0
VERTEX
  8
MMIC_Label
  10
-302.238
  20
286.575
  0
VERTEX
  8
MMIC_Label
  10
-300.632
  20
287.778
  0
VERTEX
  8
MMIC_Label
  10
-299.109
  20
288.741
  0
VERTEX
  8
MMIC_Label
  10
-297.583
  20
289.623
  0
VERTEX
  8
MMIC_Label
  10
-297.39
  20
289.693
  0
VERTEX
  8
MMIC_Label
  10
-295.577
  20
290.346
  0
VERTEX
  8
MMIC_Label
  10
-293.653
  20
290.827
  0
VERTEX
  8
MMIC_Label
  10
-291.967
  20
291.228
  0
VERTEX
  8
MMIC_Label
  10
-290.202
  20
291.308
  0
VERTEX
  8
MMIC_Label
  10
-287.081
  20
291.388
  0
VERTEX
  8
MMIC_Label
  10
-262.439
  20
291.466
  0
VERTEX
  8
MMIC_Label
  10
-262.257
  20
291.475
  0
VERTEX
  8
MMIC_Label
  10
-262.076
  20
291.504
  0
VERTEX
  8
MMIC_Label
  10
-261.899
  20
291.55
  0
VERTEX
  8
MMIC_Label
  10
-261.728
  20
291.614
  0
VERTEX
  8
MMIC_Label
  10
-261.564
  20
291.696
  0
VERTEX
  8
MMIC_Label
  10
-261.409
  20
291.794
  0
VERTEX
  8
MMIC_Label
  10
-261.265
  20
291.906
  0
VERTEX
  8
MMIC_Label
  10
-261.133
  20
292.033
  0
VERTEX
  8
MMIC_Label
  10
-252.139
  20
301.603
  0
VERTEX
  8
MMIC_Label
  10
-252.026
  20
301.736
  0
VERTEX
  8
MMIC_Label
  10
-251.926
  20
301.879
  0
VERTEX
  8
MMIC_Label
  10
-251.842
  20
302.031
  0
VERTEX
  8
MMIC_Label
  10
-251.771
  20
302.19
  0
VERTEX
  8
MMIC_Label
  10
-251.716
  20
302.356
  0
VERTEX
  8
MMIC_Label
  10
-251.678
  20
302.526
  0
VERTEX
  8
MMIC_Label
  10
-251.657
  20
302.699
  0
VERTEX
  8
MMIC_Label
  10
-251.651
  20
302.874
  0
VERTEX
  8
MMIC_Label
  10
-251.664
  20
303.047
  0
VERTEX
  8
MMIC_Label
  10
-251.693
  20
303.219
  0
VERTEX
  8
MMIC_Label
  10
-251.738
  20
303.387
  0
VERTEX
  8
MMIC_Label
  10
-251.799
  20
303.55
  0
VERTEX
  8
MMIC_Label
  10
-251.876
  20
303.707
  0
VERTEX
  8
MMIC_Label
  10
-251.968
  20
303.855
  0
VERTEX
  8
MMIC_Label
  10
-252.073
  20
303.994
  0
VERTEX
  8
MMIC_Label
  10
-252.192
  20
304.122
  0
VERTEX
  8
MMIC_Label
  10
-252.322
  20
304.238
  0
VERTEX
  8
MMIC_Label
  10
-252.463
  20
304.34
  0
VERTEX
  8
MMIC_Label
  10
-252.613
  20
304.429
  0
VERTEX
  8
MMIC_Label
  10
-252.771
  20
304.502
  0
VERTEX
  8
MMIC_Label
  10
-252.935
  20
304.561
  0
VERTEX
  8
MMIC_Label
  10
-253.105
  20
304.602
  0
VERTEX
  8
MMIC_Label
  10
-253.277
  20
304.627
  0
VERTEX
  8
MMIC_Label
  10
-253.451
  20
304.636
  0
VERTEX
  8
MMIC_Label
  10
-289.718
  20
304.636
  0
VERTEX
  8
MMIC_Label
  10
-290.754
  20
304.556
  0
VERTEX
  8
MMIC_Label
  10
-292.274
  20
304.396
  0
VERTEX
  8
MMIC_Label
  10
-293.871
  20
304.157
  0
VERTEX
  8
MMIC_Label
  10
-294.91
  20
303.997
  0
VERTEX
  8
MMIC_Label
  10
-297.39
  20
303.46
  0
VERTEX
  8
MMIC_Label
  10
-297.865
  20
303.358
  0
VERTEX
  8
MMIC_Label
  10
-300.742
  20
302.48
  0
VERTEX
  8
MMIC_Label
  10
-303.458
  20
301.441
  0
VERTEX
  8
MMIC_Label
  10
-306.096
  20
300.322
  0
VERTEX
  8
MMIC_Label
  10
-308.571
  20
298.963
  0
VERTEX
  8
MMIC_Label
  10
-310.807
  20
297.526
  0
VERTEX
  8
MMIC_Label
  10
-312.885
  20
295.929
  0
VERTEX
  8
MMIC_Label
  10
-314.88
  20
294.093
  0
VERTEX
  8
MMIC_Label
  10
-316.397
  20
292.337
  0
VERTEX
  8
MMIC_Label
  10
-317.835
  20
290.578
  0
VERTEX
  8
MMIC_Label
  10
-319.114
  20
288.663
  0
VERTEX
  8
MMIC_Label
  10
-320.23
  20
286.746
  0
VERTEX
  8
MMIC_Label
  10
-321.109
  20
284.75
  0
VERTEX
  8
MMIC_Label
  10
-321.826
  20
282.915
  0
VERTEX
  8
MMIC_Label
  10
-322.305
  20
280.921
  0
VERTEX
  8
MMIC_Label
  10
-322.704
  20
278.687
  0
VERTEX
  8
MMIC_Label
  10
-322.704
  20
277.331
  0
VERTEX
  8
MMIC_Label
  10
-322.784
  20
275.651
  0
VERTEX
  8
MMIC_Label
  10
-322.784
  20
273.974
  0
VERTEX
  8
MMIC_Label
  10
-322.704
  20
272.778
  0
VERTEX
  8
MMIC_Label
  10
-322.305
  20
270.463
  0
VERTEX
  8
MMIC_Label
  10
-321.986
  20
269.188
  0
VERTEX
  8
MMIC_Label
  10
-321.348
  20
267.274
  0
VERTEX
  8
MMIC_Label
  10
-320.71
  20
265.918
  0
VERTEX
  8
MMIC_Label
  10
-319.751
  20
264.161
  0
VERTEX
  8
MMIC_Label
  10
-318.875
  20
262.885
  0
VERTEX
  8
MMIC_Label
  10
-317.517
  20
261.127
  0
VERTEX
  8
MMIC_Label
  10
-316.561
  20
260.092
  0
VERTEX
  8
MMIC_Label
  10
-314.885
  20
258.576
  0
VERTEX
  8
MMIC_Label
  10
-313.128
  20
257.298
  0
VERTEX
  8
MMIC_Label
  10
-310.972
  20
256.021
  0
VERTEX
  8
MMIC_Label
  10
-309.217
  20
255.063
  0
VERTEX
  8
MMIC_Label
  10
-306.582
  20
254.104
  0
VERTEX
  8
MMIC_Label
  10
-304.745
  20
253.546
  0
VERTEX
  8
MMIC_Label
  10
-300.834
  20
252.668
  0
VERTEX
  8
MMIC_Label
  10
-299.558
  20
252.668
  0
VERTEX
  8
MMIC_Label
  10
-298.358
  20
252.588
  0
VERTEX
  8
MMIC_Label
  10
-298.279
  20
252.588
  0
VERTEX
  8
MMIC_Label
  10
-297.39
  20
252.565
  0
VERTEX
  8
MMIC_Label
  10
-295.239
  20
252.508
  0
VERTEX
  8
MMIC_Label
  10
-275.66
  20
252.464
  0
VERTEX
  8
MMIC_Label
  10
-261.124
  20
252.431
  0
VERTEX
  8
MMIC_Label
  10
-260.944
  20
252.44
  0
VERTEX
  8
MMIC_Label
  10
-260.766
  20
252.466
  0
VERTEX
  8
MMIC_Label
  10
-260.591
  20
252.51
  0
VERTEX
  8
MMIC_Label
  10
-260.422
  20
252.572
  0
VERTEX
  8
MMIC_Label
  10
-260.26
  20
252.65
  0
VERTEX
  8
MMIC_Label
  10
-260.106
  20
252.744
  0
VERTEX
  8
MMIC_Label
  10
-259.962
  20
252.853
  0
VERTEX
  8
MMIC_Label
  10
-259.83
  20
252.975
  0
VERTEX
  8
MMIC_Label
  10
-259.712
  20
253.11
  0
VERTEX
  8
MMIC_Label
  10
-259.606
  20
253.256
  0
VERTEX
  8
MMIC_Label
  10
-259.517
  20
253.412
  0
VERTEX
  8
MMIC_Label
  10
-259.443
  20
253.577
  0
VERTEX
  8
MMIC_Label
  10
-259.386
  20
253.747
  0
VERTEX
  8
MMIC_Label
  10
-259.346
  20
253.923
  0
VERTEX
  8
MMIC_Label
  10
-254.314
  20
282.847
  0
VERTEX
  8
MMIC_Label
  10
-254.292
  20
283.02
  0
VERTEX
  8
MMIC_Label
  10
-254.287
  20
283.194
  0
VERTEX
  8
MMIC_Label
  10
-254.299
  20
283.368
  0
VERTEX
  8
MMIC_Label
  10
-254.328
  20
283.54
  0
VERTEX
  8
MMIC_Label
  10
-254.374
  20
283.708
  0
VERTEX
  8
MMIC_Label
  10
-254.435
  20
283.871
  0
VERTEX
  8
MMIC_Label
  10
-254.512
  20
284.028
  0
VERTEX
  8
MMIC_Label
  10
-254.603
  20
284.176
  0
VERTEX
  8
MMIC_Label
  10
-254.709
  20
284.314
  0
VERTEX
  8
MMIC_Label
  10
-254.827
  20
284.442
  0
VERTEX
  8
MMIC_Label
  10
-254.958
  20
284.558
  0
VERTEX
  8
MMIC_Label
  10
-255.098
  20
284.661
  0
VERTEX
  8
MMIC_Label
  10
-255.249
  20
284.749
  0
VERTEX
  8
MMIC_Label
  10
-255.406
  20
284.822
  0
VERTEX
  8
MMIC_Label
  10
-255.571
  20
284.881
  0
VERTEX
  8
MMIC_Label
  10
-255.74
  20
284.922
  0
VERTEX
  8
MMIC_Label
  10
-255.913
  20
284.947
  0
VERTEX
  8
MMIC_Label
  10
-256.086
  20
284.956
  0
VERTEX
  8
MMIC_Label
  10
-287.218
  20
284.956
  0
VERTEX
  8
MMIC_Label
  10
-295.276
  20
276.634
  0
VERTEX
  8
MMIC_Label
  10
-295.39
  20
276.495
  0
VERTEX
  8
MMIC_Label
  10
-295.49
  20
276.345
  0
VERTEX
  8
MMIC_Label
  10
-295.574
  20
276.185
  0
VERTEX
  8
MMIC_Label
  10
-295.642
  20
276.018
  0
VERTEX
  8
MMIC_Label
  10
-295.692
  20
275.845
  0
VERTEX
  8
MMIC_Label
  10
-295.725
  20
275.667
  0
VERTEX
  8
MMIC_Label
  10
-295.74
  20
275.487
  0
VERTEX
  8
MMIC_Label
  10
-295.737
  20
275.307
  0
VERTEX
  8
MMIC_Label
  10
-295.715
  20
275.128
  0
VERTEX
  8
MMIC_Label
  10
-295.677
  20
274.952
  0
VERTEX
  8
MMIC_Label
  10
-295.62
  20
274.781
  0
VERTEX
  8
MMIC_Label
  10
-295.547
  20
274.616
  0
VERTEX
  8
MMIC_Label
  10
-295.458
  20
274.459
  0
VERTEX
  8
MMIC_Label
  10
-295.353
  20
274.312
  0
VERTEX
  8
MMIC_Label
  10
-295.234
  20
274.177
  0
VERTEX
  8
MMIC_Label
  10
-295.102
  20
274.054
  0
VERTEX
  8
MMIC_Label
  10
-294.959
  20
273.944
  0
VERTEX
  8
MMIC_Label
  10
-294.806
  20
273.85
  0
VERTEX
  8
MMIC_Label
  10
-294.643
  20
273.77
  0
VERTEX
  8
MMIC_Label
  10
-294.474
  20
273.709
  0
VERTEX
  8
MMIC_Label
  10
-294.299
  20
273.664
  0
VERTEX
  8
MMIC_Label
  10
-294.121
  20
273.637
  0
VERTEX
  8
MMIC_Label
  10
-293.941
  20
273.628
  0
VERTEX
  8
MMIC_Label
  10
-271.94
  20
273.628
  0
SEQEND
  0
POLYLINE
  8
MMIC_Label
  70
1
  66
1
  0
VERTEX
  8
MMIC_Label
  10
222.31
  20
229.6
  0
VERTEX
  8
MMIC_Label
  10
232.21
  20
246.1
  0
VERTEX
  8
MMIC_Label
  10
222.31
  20
262.6
  0
VERTEX
  8
MMIC_Label
  10
229.57
  20
262.6
  0
VERTEX
  8
MMIC_Label
  10
236.17
  20
251.71
  0
VERTEX
  8
MMIC_Label
  10
242.77
  20
262.6
  0
VERTEX
  8
MMIC_Label
  10
249.7
  20
262.6
  0
VERTEX
  8
MMIC_Label
  10
239.8
  20
246.1
  0
VERTEX
  8
MMIC_Label
  10
249.7
  20
229.6
  0
VERTEX
  8
MMIC_Label
  10
242.77
  20
229.6
  0
VERTEX
  8
MMIC_Label
  10
236.17
  20
240.49
  0
VERTEX
  8
MMIC_Label
  10
229.57
  20
229.6
  0
SEQEND
  0
POLYLINE
  8
MMIC_Label
  70
1
  66
1
  0
VERTEX
  8
MMIC_Label
  10
-601.7
  20
246.2
  0
VERTEX
  8
MMIC_Label
  10
-601.6
  20
246.2
  0
VERTEX
  8
MMIC_Label
  10
-601.6
  20
246.3
  0
VERTEX
  8
MMIC_Label
  10
-601.7
  20
246.3
  0
SEQEND
  0
POLYLINE
  8
MMIC_Label
  70
1
  66
1
  0
VERTEX
  8
MMIC_Label
  10
58.31
  20
229.6
  0
VERTEX
  8
MMIC_Label
  10
68.21
  20
262.6
  0
VERTEX
  8
MMIC_Label
  10
75.8
  20
262.6
  0
VERTEX
  8
MMIC_Label
  10
85.7
  20
229.6
  0
VERTEX
  8
MMIC_Label
  10
78.77
  20
229.6
  0
VERTEX
  8
MMIC_Label
  10
77.12
  20
236.2
  0
VERTEX
  8
MMIC_Label
  10
67.22
  20
236.2
  0
VERTEX
  8
MMIC_Label
  10
65.57
  20
229.6
  0
SEQEND
  0
POLYLINE
  8
MMIC_Label
  70
1
  66
1
  0
VERTEX
  8
MMIC_Label
  10
287.91
  20
229.6
  0
VERTEX
  8
MMIC_Label
  10
297.81
  20
246.1
  0
VERTEX
  8
MMIC_Label
  10
287.91
  20
262.6
  0
VERTEX
  8
MMIC_Label
  10
295.17
  20
262.6
  0
VERTEX
  8
MMIC_Label
  10
301.77
  20
251.71
  0
VERTEX
  8
MMIC_Label
  10
308.37
  20
262.6
  0
VERTEX
  8
MMIC_Label
  10
315.3
  20
262.6
  0
VERTEX
  8
MMIC_Label
  10
305.4
  20
246.1
  0
VERTEX
  8
MMIC_Label
  10
315.3
  20
229.6
  0
VERTEX
  8
MMIC_Label
  10
308.37
  20
229.6
  0
VERTEX
  8
MMIC_Label
  10
301.77
  20
240.49
  0
VERTEX
  8
MMIC_Label
  10
295.17
  20
229.6
  0
SEQEND
  0
POLYLINE
  8
MMIC_Label
  70
1
  66
1
  0
VERTEX
  8
MMIC_Label
  10
204.41
  20
289.15
  0
VERTEX
  8
MMIC_Label
  10
208.37
  20
303.34
  0
VERTEX
  8
MMIC_Label
  10
212
  20
289.15
  0
SEQEND
  0
POLYLINE
  8
MMIC_Label
  70
1
  66
1
  0
VERTEX
  8
MMIC_Label
  10
189.51
  20
229.6
  0
VERTEX
  8
MMIC_Label
  10
189.51
  20
262.6
  0
VERTEX
  8
MMIC_Label
  10
216.9
  20
262.6
  0
VERTEX
  8
MMIC_Label
  10
216.9
  20
256.99
  0
VERTEX
  8
MMIC_Label
  10
196.11
  20
256.99
  0
VERTEX
  8
MMIC_Label
  10
196.11
  20
248.74
  0
VERTEX
  8
MMIC_Label
  10
214.26
  20
248.74
  0
VERTEX
  8
MMIC_Label
  10
214.26
  20
243.46
  0
VERTEX
  8
MMIC_Label
  10
196.11
  20
243.46
  0
VERTEX
  8
MMIC_Label
  10
196.11
  20
229.6
  0
SEQEND
  0
POLYLINE
  8
MMIC_Label
  70
1
  66
1
  0
VERTEX
  8
MMIC_Label
  10
183.11
  20
253.36
  0
VERTEX
  8
MMIC_Label
  10
182.78
  20
255.67
  0
VERTEX
  8
MMIC_Label
  10
181.79
  20
257.65
  0
VERTEX
  8
MMIC_Label
  10
180.47
  20
259.3
  0
VERTEX
  8
MMIC_Label
  10
178.82
  20
260.62
  0
VERTEX
  8
MMIC_Label
  10
176.84
  20
261.61
  0
VERTEX
  8
MMIC_Label
  10
174.53
  20
262.6
  0
VERTEX
  8
MMIC_Label
  10
166.28
  20
262.6
  0
VERTEX
  8
MMIC_Label
  10
162.32
  20
261.28
  0
VERTEX
  8
MMIC_Label
  10
160.34
  20
259.96
  0
VERTEX
  8
MMIC_Label
  10
159.02
  20
258.31
  0
VERTEX
  8
MMIC_Label
  10
158.03
  20
256.33
  0
VERTEX
  8
MMIC_Label
  10
157.7
  20
253.69
  0
VERTEX
  8
MMIC_Label
  10
158.36
  20
251.38
  0
VERTEX
  8
MMIC_Label
  10
159.35
  20
249.07
  0
VERTEX
  8
MMIC_Label
  10
161
  20
247.42
  0
VERTEX
  8
MMIC_Label
  10
162.65
  20
246.1
  0
VERTEX
  8
MMIC_Label
  10
164.63
  20
245.11
  0
VERTEX
  8
MMIC_Label
  10
166.61
  20
244.45
  0
VERTEX
  8
MMIC_Label
  10
172.55
  20
242.14
  0
VERTEX
  8
MMIC_Label
  10
175.19
  20
241.48
  0
VERTEX
  8
MMIC_Label
  10
177.17
  20
239.5
  0
VERTEX
  8
MMIC_Label
  10
177.5
  20
237.85
  0
VERTEX
  8
MMIC_Label
  10
177.17
  20
236.2
  0
VERTEX
  8
MMIC_Label
  10
175.85
  20
235.21
  0
VERTEX
  8
MMIC_Label
  10
173.21
  20
234.55
  0
VERTEX
  8
MMIC_Label
  10
170.57
  20
234.55
  0
VERTEX
  8
MMIC_Label
  10
167.27
  20
235.21
  0
VERTEX
  8
MMIC_Label
  10
165.95
  20
235.87
  0
VERTEX
  8
MMIC_Label
  10
164.63
  20
236.86
  0
VERTEX
  8
MMIC_Label
  10
163.64
  20
238.18
  0
VERTEX
  8
MMIC_Label
  10
163.31
  20
240.16
  0
VERTEX
  8
MMIC_Label
  10
156.71
  20
240.16
  0
VERTEX
  8
MMIC_Label
  10
157.04
  20
237.52
  0
VERTEX
  8
MMIC_Label
  10
158.03
  20
235.21
  0
VERTEX
  8
MMIC_Label
  10
159.68
  20
233.23
  0
VERTEX
  8
MMIC_Label
  10
161.33
  20
231.91
  0
VERTEX
  8
MMIC_Label
  10
163.64
  20
230.59
  0
VERTEX
  8
MMIC_Label
  10
165.62
  20
229.6
  0
VERTEX
  8
MMIC_Label
  10
174.86
  20
229.6
  0
VERTEX
  8
MMIC_Label
  10
177.17
  20
229.93
  0
VERTEX
  8
MMIC_Label
  10
179.15
  20
230.92
  0
VERTEX
  8
MMIC_Label
  10
181.13
  20
232.24
  0
VERTEX
  8
MMIC_Label
  10
182.78
  20
233.89
  0
VERTEX
  8
MMIC_Label
  10
183.77
  20
235.87
  0
VERTEX
  8
MMIC_Label
  10
184.1
  20
238.51
  0
VERTEX
  8
MMIC_Label
  10
183.77
  20
240.82
  0
VERTEX
  8
MMIC_Label
  10
183.11
  20
242.8
  0
VERTEX
  8
MMIC_Label
  10
181.79
  20
244.45
  0
VERTEX
  8
MMIC_Label
  10
180.14
  20
245.77
  0
VERTEX
  8
MMIC_Label
  10
178.16
  20
246.76
  0
VERTEX
  8
MMIC_Label
  10
176.51
  20
247.75
  0
VERTEX
  8
MMIC_Label
  10
174.86
  20
248.41
  0
VERTEX
  8
MMIC_Label
  10
168.26
  20
250.39
  0
VERTEX
  8
MMIC_Label
  10
166.94
  20
251.05
  0
VERTEX
  8
MMIC_Label
  10
165.95
  20
251.71
  0
VERTEX
  8
MMIC_Label
  10
164.96
  20
252.7
  0
VERTEX
  8
MMIC_Label
  10
164.3
  20
254.35
  0
VERTEX
  8
MMIC_Label
  10
164.96
  20
256
  0
VERTEX
  8
MMIC_Label
  10
166.28
  20
256.99
  0
VERTEX
  8
MMIC_Label
  10
167.6
  20
257.32
  0
VERTEX
  8
MMIC_Label
  10
169.25
  20
257.65
  0
VERTEX
  8
MMIC_Label
  10
170.57
  20
257.65
  0
VERTEX
  8
MMIC_Label
  10
171.89
  20
257.32
  0
VERTEX
  8
MMIC_Label
  10
173.54
  20
256.99
  0
VERTEX
  8
MMIC_Label
  10
175.19
  20
256.33
  0
VERTEX
  8
MMIC_Label
  10
176.51
  20
255.01
  0
VERTEX
  8
MMIC_Label
  10
177.17
  20
253.36
  0
SEQEND
  0
POLYLINE
  8
MMIC_Label
  70
1
  66
1
  0
VERTEX
  8
MMIC_Label
  10
130.51
  20
235.21
  0
VERTEX
  8
MMIC_Label
  10
130.51
  20
243.79
  0
VERTEX
  8
MMIC_Label
  10
141.73
  20
243.79
  0
VERTEX
  8
MMIC_Label
  10
143.05
  20
243.13
  0
VERTEX
  8
MMIC_Label
  10
144.04
  20
242.14
  0
VERTEX
  8
MMIC_Label
  10
144.7
  20
240.82
  0
VERTEX
  8
MMIC_Label
  10
144.7
  20
238.18
  0
VERTEX
  8
MMIC_Label
  10
144.04
  20
236.86
  0
VERTEX
  8
MMIC_Label
  10
143.05
  20
235.87
  0
VERTEX
  8
MMIC_Label
  10
141.73
  20
235.21
  0
SEQEND
  0
POLYLINE
  8
MMIC_Label
  70
1
  66
1
  0
VERTEX
  8
MMIC_Label
  10
130.51
  20
235.21
  0
VERTEX
  8
MMIC_Label
  10
130.51
  20
243.79
  0
VERTEX
  8
MMIC_Label
  10
141.73
  20
243.79
  0
VERTEX
  8
MMIC_Label
  10
143.05
  20
243.13
  0
VERTEX
  8
MMIC_Label
  10
144.04
  20
242.14
  0
VERTEX
  8
MMIC_Label
  10
144.7
  20
240.82
  0
VERTEX
  8
MMIC_Label
  10
144.7
  20
238.18
  0
VERTEX
  8
MMIC_Label
  10
144.04
  20
236.86
  0
VERTEX
  8
MMIC_Label
  10
143.05
  20
235.87
  0
VERTEX
  8
MMIC_Label
  10
141.73
  20
235.21
  0
SEQEND
  0
POLYLINE
  8
MMIC_Label
  70
1
  66
1
  0
VERTEX
  8
MMIC_Label
  10
-471.7
  20
301.3
  0
VERTEX
  8
MMIC_Label
  10
-456.7
  20
301.3
  0
VERTEX
  8
MMIC_Label
  10
-456.7
  20
286.3
  0
VERTEX
  8
MMIC_Label
  10
-471.7
  20
286.3
  0
SEQEND
  0
POLYLINE
  8
MMIC_Label
  70
1
  66
1
  0
VERTEX
  8
MMIC_Label
  10
58.31
  20
229.6
  0
VERTEX
  8
MMIC_Label
  10
68.21
  20
262.6
  0
VERTEX
  8
MMIC_Label
  10
75.8
  20
262.6
  0
VERTEX
  8
MMIC_Label
  10
85.7
  20
229.6
  0
VERTEX
  8
MMIC_Label
  10
78.77
  20
229.6
  0
VERTEX
  8
MMIC_Label
  10
77.12
  20
236.2
  0
VERTEX
  8
MMIC_Label
  10
67.22
  20
236.2
  0
VERTEX
  8
MMIC_Label
  10
65.57
  20
229.6
  0
SEQEND
  0
POLYLINE
  8
MMIC_Label
  70
1
  66
1
  0
VERTEX
  8
MMIC_Label
  10
-446.7
  20
246.2
  0
VERTEX
  8
MMIC_Label
  10
-446.7
  20
310.6
  0
VERTEX
  8
MMIC_Label
  10
-451.7
  20
310.6
  0
VERTEX
  8
MMIC_Label
  10
-451.7
  20
246.2
  0
SEQEND
  0
POLYLINE
  8
MMIC_Label
  70
1
  66
1
  0
VERTEX
  8
MMIC_Label
  10
261.76
  20
277.6
  0
VERTEX
  8
MMIC_Label
  10
261.76
  20
282.55
  0
VERTEX
  8
MMIC_Label
  10
269.02
  20
282.55
  0
VERTEX
  8
MMIC_Label
  10
269.02
  20
299.71
  0
VERTEX
  8
MMIC_Label
  10
260.11
  20
299.71
  0
VERTEX
  8
MMIC_Label
  10
260.11
  20
304
  0
VERTEX
  8
MMIC_Label
  10
261.76
  20
304
  0
VERTEX
  8
MMIC_Label
  10
263.74
  20
304.33
  0
VERTEX
  8
MMIC_Label
  10
265.72
  20
304.99
  0
VERTEX
  8
MMIC_Label
  10
267.37
  20
305.65
  0
VERTEX
  8
MMIC_Label
  10
268.69
  20
306.97
  0
VERTEX
  8
MMIC_Label
  10
269.68
  20
308.62
  0
VERTEX
  8
MMIC_Label
  10
270.01
  20
310.6
  0
VERTEX
  8
MMIC_Label
  10
275.62
  20
310.6
  0
VERTEX
  8
MMIC_Label
  10
275.62
  20
282.55
  0
VERTEX
  8
MMIC_Label
  10
282.88
  20
282.55
  0
VERTEX
  8
MMIC_Label
  10
282.88
  20
277.6
  0
SEQEND
  0
POLYLINE
  8
MMIC_Label
  70
1
  66
1
  0
VERTEX
  8
MMIC_Label
  10
-441.7
  20
301.3
  0
VERTEX
  8
MMIC_Label
  10
-426.7
  20
301.3
  0
VERTEX
  8
MMIC_Label
  10
-426.7
  20
286.3
  0
VERTEX
  8
MMIC_Label
  10
-441.7
  20
286.3
  0
SEQEND
  0
POLYLINE
  8
MMIC_Label
  70
1
  66
1
  0
VERTEX
  8
MMIC_Label
  10
183.11
  20
253.36
  0
VERTEX
  8
MMIC_Label
  10
182.78
  20
255.67
  0
VERTEX
  8
MMIC_Label
  10
181.79
  20
257.65
  0
VERTEX
  8
MMIC_Label
  10
180.47
  20
259.3
  0
VERTEX
  8
MMIC_Label
  10
178.82
  20
260.62
  0
VERTEX
  8
MMIC_Label
  10
176.84
  20
261.61
  0
VERTEX
  8
MMIC_Label
  10
174.53
  20
262.6
  0
VERTEX
  8
MMIC_Label
  10
166.28
  20
262.6
  0
VERTEX
  8
MMIC_Label
  10
162.32
  20
261.28
  0
VERTEX
  8
MMIC_Label
  10
160.34
  20
259.96
  0
VERTEX
  8
MMIC_Label
  10
159.02
  20
258.31
  0
VERTEX
  8
MMIC_Label
  10
158.03
  20
256.33
  0
VERTEX
  8
MMIC_Label
  10
157.7
  20
253.69
  0
VERTEX
  8
MMIC_Label
  10
158.36
  20
251.38
  0
VERTEX
  8
MMIC_Label
  10
159.35
  20
249.07
  0
VERTEX
  8
MMIC_Label
  10
161
  20
247.42
  0
VERTEX
  8
MMIC_Label
  10
162.65
  20
246.1
  0
VERTEX
  8
MMIC_Label
  10
164.63
  20
245.11
  0
VERTEX
  8
MMIC_Label
  10
166.61
  20
244.45
  0
VERTEX
  8
MMIC_Label
  10
172.55
  20
242.14
  0
VERTEX
  8
MMIC_Label
  10
175.19
  20
241.48
  0
VERTEX
  8
MMIC_Label
  10
177.17
  20
239.5
  0
VERTEX
  8
MMIC_Label
  10
177.5
  20
237.85
  0
VERTEX
  8
MMIC_Label
  10
177.17
  20
236.2
  0
VERTEX
  8
MMIC_Label
  10
175.85
  20
235.21
  0
VERTEX
  8
MMIC_Label
  10
173.21
  20
234.55
  0
VERTEX
  8
MMIC_Label
  10
170.57
  20
234.55
  0
VERTEX
  8
MMIC_Label
  10
167.27
  20
235.21
  0
VERTEX
  8
MMIC_Label
  10
165.95
  20
235.87
  0
VERTEX
  8
MMIC_Label
  10
164.63
  20
236.86
  0
VERTEX
  8
MMIC_Label
  10
163.64
  20
238.18
  0
VERTEX
  8
MMIC_Label
  10
163.31
  20
240.16
  0
VERTEX
  8
MMIC_Label
  10
156.71
  20
240.16
  0
VERTEX
  8
MMIC_Label
  10
157.04
  20
237.52
  0
VERTEX
  8
MMIC_Label
  10
158.03
  20
235.21
  0
VERTEX
  8
MMIC_Label
  10
159.68
  20
233.23
  0
VERTEX
  8
MMIC_Label
  10
161.33
  20
231.91
  0
VERTEX
  8
MMIC_Label
  10
163.64
  20
230.59
  0
VERTEX
  8
MMIC_Label
  10
165.62
  20
229.6
  0
VERTEX
  8
MMIC_Label
  10
174.86
  20
229.6
  0
VERTEX
  8
MMIC_Label
  10
177.17
  20
229.93
  0
VERTEX
  8
MMIC_Label
  10
179.15
  20
230.92
  0
VERTEX
  8
MMIC_Label
  10
181.13
  20
232.24
  0
VERTEX
  8
MMIC_Label
  10
182.78
  20
233.89
  0
VERTEX
  8
MMIC_Label
  10
183.77
  20
235.87
  0
VERTEX
  8
MMIC_Label
  10
184.1
  20
238.51
  0
VERTEX
  8
MMIC_Label
  10
183.77
  20
240.82
  0
VERTEX
  8
MMIC_Label
  10
183.11
  20
242.8
  0
VERTEX
  8
MMIC_Label
  10
181.79
  20
244.45
  0
VERTEX
  8
MMIC_Label
  10
180.14
  20
245.77
  0
VERTEX
  8
MMIC_Label
  10
178.16
  20
246.76
  0
VERTEX
  8
MMIC_Label
  10
176.51
  20
247.75
  0
VERTEX
  8
MMIC_Label
  10
174.86
  20
248.41
  0
VERTEX
  8
MMIC_Label
  10
168.26
  20
250.39
  0
VERTEX
  8
MMIC_Label
  10
166.94
  20
251.05
  0
VERTEX
  8
MMIC_Label
  10
165.95
  20
251.71
  0
VERTEX
  8
MMIC_Label
  10
164.96
  20
252.7
  0
VERTEX
  8
MMIC_Label
  10
164.3
  20
254.35
  0
VERTEX
  8
MMIC_Label
  10
164.96
  20
256
  0
VERTEX
  8
MMIC_Label
  10
166.28
  20
256.99
  0
VERTEX
  8
MMIC_Label
  10
167.6
  20
257.32
  0
VERTEX
  8
MMIC_Label
  10
169.25
  20
257.65
  0
VERTEX
  8
MMIC_Label
  10
170.57
  20
257.65
  0
VERTEX
  8
MMIC_Label
  10
171.89
  20
257.32
  0
VERTEX
  8
MMIC_Label
  10
173.54
  20
256.99
  0
VERTEX
  8
MMIC_Label
  10
175.19
  20
256.33
  0
VERTEX
  8
MMIC_Label
  10
176.51
  20
255.01
  0
VERTEX
  8
MMIC_Label
  10
177.17
  20
253.36
  0
SEQEND
  0
POLYLINE
  8
MMIC_Label
  70
1
  66
1
  0
VERTEX
  8
MMIC_Label
  10
287.91
  20
229.6
  0
VERTEX
  8
MMIC_Label
  10
297.81
  20
246.1
  0
VERTEX
  8
MMIC_Label
  10
287.91
  20
262.6
  0
VERTEX
  8
MMIC_Label
  10
295.17
  20
262.6
  0
VERTEX
  8
MMIC_Label
  10
301.77
  20
251.71
  0
VERTEX
  8
MMIC_Label
  10
308.37
  20
262.6
  0
VERTEX
  8
MMIC_Label
  10
315.3
  20
262.6
  0
VERTEX
  8
MMIC_Label
  10
305.4
  20
246.1
  0
VERTEX
  8
MMIC_Label
  10
315.3
  20
229.6
  0
VERTEX
  8
MMIC_Label
  10
308.37
  20
229.6
  0
VERTEX
  8
MMIC_Label
  10
301.77
  20
240.49
  0
VERTEX
  8
MMIC_Label
  10
295.17
  20
229.6
  0
SEQEND
  0
POLYLINE
  8
MMIC_Label
  70
1
  66
1
  0
VERTEX
  8
MMIC_Label
  10
-471.7
  20
271.3
  0
VERTEX
  8
MMIC_Label
  10
-456.7
  20
271.3
  0
VERTEX
  8
MMIC_Label
  10
-456.7
  20
256.3
  0
VERTEX
  8
MMIC_Label
  10
-471.7
  20
256.3
  0
SEQEND
  0
POLYLINE
  8
MMIC_Label
  70
1
  66
1
  0
VERTEX
  8
MMIC_Label
  10
68.21
  20
241.15
  0
VERTEX
  8
MMIC_Label
  10
72.17
  20
255.34
  0
VERTEX
  8
MMIC_Label
  10
75.8
  20
241.15
  0
SEQEND
  0
POLYLINE
  8
MMIC_Label
  70
1
  66
1
  0
VERTEX
  8
MMIC_Label
  10
255.11
  20
229.6
  0
VERTEX
  8
MMIC_Label
  10
265.01
  20
246.1
  0
VERTEX
  8
MMIC_Label
  10
255.11
  20
262.6
  0
VERTEX
  8
MMIC_Label
  10
262.37
  20
262.6
  0
VERTEX
  8
MMIC_Label
  10
268.97
  20
251.71
  0
VERTEX
  8
MMIC_Label
  10
275.57
  20
262.6
  0
VERTEX
  8
MMIC_Label
  10
282.5
  20
262.6
  0
VERTEX
  8
MMIC_Label
  10
272.6
  20
246.1
  0
VERTEX
  8
MMIC_Label
  10
282.5
  20
229.6
  0
VERTEX
  8
MMIC_Label
  10
275.57
  20
229.6
  0
VERTEX
  8
MMIC_Label
  10
268.97
  20
240.49
  0
VERTEX
  8
MMIC_Label
  10
262.37
  20
229.6
  0
SEQEND
  0
POLYLINE
  8
MMIC_Label
  70
1
  66
1
  0
VERTEX
  8
MMIC_Label
  10
-351.506
  20
265.612
  0
VERTEX
  8
MMIC_Label
  10
-351.509
  20
265.602
  0
VERTEX
  8
MMIC_Label
  10
-351.513
  20
265.591
  0
VERTEX
  8
MMIC_Label
  10
-351.518
  20
265.581
  0
VERTEX
  8
MMIC_Label
  10
-351.523
  20
265.571
  0
VERTEX
  8
MMIC_Label
  10
-351.538
  20
265.554
  0
VERTEX
  8
MMIC_Label
  10
-351.546
  20
265.546
  0
VERTEX
  8
MMIC_Label
  10
-351.555
  20
265.539
  0
VERTEX
  8
MMIC_Label
  10
-351.565
  20
265.534
  0
VERTEX
  8
MMIC_Label
  10
-351.574
  20
265.529
  0
VERTEX
  8
MMIC_Label
  10
-351.586
  20
265.526
  0
VERTEX
  8
MMIC_Label
  10
-351.596
  20
265.522
  0
VERTEX
  8
MMIC_Label
  10
-351.607
  20
265.521
  0
VERTEX
  8
MMIC_Label
  10
-351.618
  20
265.521
  0
VERTEX
  8
MMIC_Label
  10
-373.213
  20
265.597
  0
VERTEX
  8
MMIC_Label
  10
-373.38
  20
265.59
  0
VERTEX
  8
MMIC_Label
  10
-373.546
  20
265.567
  0
VERTEX
  8
MMIC_Label
  10
-373.71
  20
265.529
  0
VERTEX
  8
MMIC_Label
  10
-373.87
  20
265.475
  0
VERTEX
  8
MMIC_Label
  10
-374.022
  20
265.408
  0
VERTEX
  8
MMIC_Label
  10
-374.17
  20
265.326
  0
VERTEX
  8
MMIC_Label
  10
-374.307
  20
265.23
  0
VERTEX
  8
MMIC_Label
  10
-374.436
  20
265.123
  0
VERTEX
  8
MMIC_Label
  10
-374.554
  20
265.004
  0
VERTEX
  8
MMIC_Label
  10
-379.898
  20
259.09
  0
VERTEX
  8
MMIC_Label
  10
-383.196
  20
255.438
  0
VERTEX
  8
MMIC_Label
  10
-383.31
  20
255.299
  0
VERTEX
  8
MMIC_Label
  10
-383.41
  20
255.149
  0
VERTEX
  8
MMIC_Label
  10
-383.494
  20
254.989
  0
VERTEX
  8
MMIC_Label
  10
-383.562
  20
254.822
  0
VERTEX
  8
MMIC_Label
  10
-383.612
  20
254.649
  0
VERTEX
  8
MMIC_Label
  10
-383.645
  20
254.471
  0
VERTEX
  8
MMIC_Label
  10
-383.66
  20
254.291
  0
VERTEX
  8
MMIC_Label
  10
-383.657
  20
254.111
  0
VERTEX
  8
MMIC_Label
  10
-383.635
  20
253.932
  0
VERTEX
  8
MMIC_Label
  10
-383.597
  20
253.756
  0
VERTEX
  8
MMIC_Label
  10
-383.54
  20
253.585
  0
VERTEX
  8
MMIC_Label
  10
-383.467
  20
253.42
  0
VERTEX
  8
MMIC_Label
  10
-383.378
  20
253.263
  0
VERTEX
  8
MMIC_Label
  10
-383.273
  20
253.116
  0
VERTEX
  8
MMIC_Label
  10
-383.154
  20
252.981
  0
VERTEX
  8
MMIC_Label
  10
-383.022
  20
252.858
  0
VERTEX
  8
MMIC_Label
  10
-382.879
  20
252.748
  0
VERTEX
  8
MMIC_Label
  10
-382.726
  20
252.654
  0
VERTEX
  8
MMIC_Label
  10
-382.563
  20
252.574
  0
VERTEX
  8
MMIC_Label
  10
-382.394
  20
252.513
  0
VERTEX
  8
MMIC_Label
  10
-382.219
  20
252.468
  0
VERTEX
  8
MMIC_Label
  10
-382.041
  20
252.441
  0
VERTEX
  8
MMIC_Label
  10
-381.861
  20
252.432
  0
VERTEX
  8
MMIC_Label
  10
-328.362
  20
252.432
  0
VERTEX
  8
MMIC_Label
  10
-328.187
  20
252.441
  0
VERTEX
  8
MMIC_Label
  10
-328.014
  20
252.466
  0
VERTEX
  8
MMIC_Label
  10
-327.843
  20
252.508
  0
VERTEX
  8
MMIC_Label
  10
-327.678
  20
252.567
  0
VERTEX
  8
MMIC_Label
  10
-327.519
  20
252.642
  0
VERTEX
  8
MMIC_Label
  10
-327.369
  20
252.731
  0
VERTEX
  8
MMIC_Label
  10
-327.227
  20
252.834
  0
VERTEX
  8
MMIC_Label
  10
-327.097
  20
252.952
  0
VERTEX
  8
MMIC_Label
  10
-326.978
  20
253.081
  0
VERTEX
  8
MMIC_Label
  10
-326.873
  20
253.221
  0
VERTEX
  8
MMIC_Label
  10
-326.782
  20
253.37
  0
VERTEX
  8
MMIC_Label
  10
-326.706
  20
253.529
  0
VERTEX
  8
MMIC_Label
  10
-326.645
  20
253.693
  0
VERTEX
  8
MMIC_Label
  10
-326.601
  20
253.862
  0
VERTEX
  8
MMIC_Label
  10
-326.573
  20
254.036
  0
VERTEX
  8
MMIC_Label
  10
-326.562
  20
254.21
  0
VERTEX
  8
MMIC_Label
  10
-326.569
  20
254.386
  0
VERTEX
  8
MMIC_Label
  10
-326.592
  20
254.56
  0
VERTEX
  8
MMIC_Label
  10
-326.633
  20
254.73
  0
VERTEX
  8
MMIC_Label
  10
-326.69
  20
254.896
  0
VERTEX
  8
MMIC_Label
  10
-326.762
  20
255.056
  0
VERTEX
  8
MMIC_Label
  10
-347.77
  20
295.87
  0
VERTEX
  8
MMIC_Label
  10
-348.65
  20
297.63
  0
VERTEX
  8
MMIC_Label
  10
-349.53
  20
299.229
  0
VERTEX
  8
MMIC_Label
  10
-350.246
  20
300.586
  0
VERTEX
  8
MMIC_Label
  10
-351.284
  20
301.942
  0
VERTEX
  8
MMIC_Label
  10
-352.081
  20
302.898
  0
VERTEX
  8
MMIC_Label
  10
-352.875
  20
303.693
  0
VERTEX
  8
MMIC_Label
  10
-353.432
  20
304.09
  0
VERTEX
  8
MMIC_Label
  10
-354.307
  20
304.646
  0
VERTEX
  8
MMIC_Label
  10
-355.018
  20
304.964
  0
VERTEX
  8
MMIC_Label
  10
-355.896
  20
305.202
  0
VERTEX
  8
MMIC_Label
  10
-356.69
  20
305.441
  0
VERTEX
  8
MMIC_Label
  10
-357.645
  20
305.52
  0
VERTEX
  8
MMIC_Label
  10
-359
  20
305.6
  0
VERTEX
  8
MMIC_Label
  10
-360.356
  20
305.52
  0
VERTEX
  8
MMIC_Label
  10
-361.39
  20
305.44
  0
VERTEX
  8
MMIC_Label
  10
-362.025
  20
305.282
  0
VERTEX
  8
MMIC_Label
  10
-362.902
  20
305.042
  0
VERTEX
  8
MMIC_Label
  10
-364.334
  20
304.486
  0
VERTEX
  8
MMIC_Label
  10
-365.45
  20
303.77
  0
VERTEX
  8
MMIC_Label
  10
-367.047
  20
302.73
  0
VERTEX
  8
MMIC_Label
  10
-368.482
  20
301.613
  0
VERTEX
  8
MMIC_Label
  10
-369.76
  20
300.417
  0
VERTEX
  8
MMIC_Label
  10
-371.119
  20
298.898
  0
VERTEX
  8
MMIC_Label
  10
-393.876
  20
273.068
  0
VERTEX
  8
MMIC_Label
  10
-400.144
  20
265.954
  0
VERTEX
  8
MMIC_Label
  10
-400.144
  20
265.746
  0
VERTEX
  8
MMIC_Label
  10
-399.109
  20
263.118
  0
VERTEX
  8
MMIC_Label
  10
-397.83
  20
260.482
  0
VERTEX
  8
MMIC_Label
  10
-396.391
  20
257.925
  0
VERTEX
  8
MMIC_Label
  10
-395.034
  20
255.766
  0
VERTEX
  8
MMIC_Label
  10
-394.994
  20
255.711
  0
VERTEX
  8
MMIC_Label
  10
-394.821
  20
255.506
  0
VERTEX
  8
MMIC_Label
  10
-394.629
  20
255.318
  0
VERTEX
  8
MMIC_Label
  10
-394.418
  20
255.15
  0
VERTEX
  8
MMIC_Label
  10
-394.193
  20
255.003
  0
VERTEX
  8
MMIC_Label
  10
-393.954
  20
254.879
  0
VERTEX
  8
MMIC_Label
  10
-393.704
  20
254.78
  0
VERTEX
  8
MMIC_Label
  10
-393.446
  20
254.705
  0
VERTEX
  8
MMIC_Label
  10
-393.182
  20
254.655
  0
VERTEX
  8
MMIC_Label
  10
-392.914
  20
254.633
  0
VERTEX
  8
MMIC_Label
  10
-392.645
  20
254.636
  0
VERTEX
  8
MMIC_Label
  10
-392.378
  20
254.666
  0
VERTEX
  8
MMIC_Label
  10
-392.114
  20
254.722
  0
VERTEX
  8
MMIC_Label
  10
-391.858
  20
254.802
  0
VERTEX
  8
MMIC_Label
  10
-391.61
  20
254.909
  0
VERTEX
  8
MMIC_Label
  10
-391.375
  20
255.038
  0
VERTEX
  8
MMIC_Label
  10
-391.153
  20
255.19
  0
VERTEX
  8
MMIC_Label
  10
-390.947
  20
255.364
  0
VERTEX
  8
MMIC_Label
  10
-390.759
  20
255.557
  0
VERTEX
  8
MMIC_Label
  10
-384.006
  20
263.198
  0
VERTEX
  8
MMIC_Label
  10
-362.7
  20
287.309
  0
VERTEX
  8
MMIC_Label
  10
-362.683
  20
287.326
  0
VERTEX
  8
MMIC_Label
  10
-362.666
  20
287.341
  0
VERTEX
  8
MMIC_Label
  10
-362.647
  20
287.354
  0
VERTEX
  8
MMIC_Label
  10
-362.627
  20
287.366
  0
VERTEX
  8
MMIC_Label
  10
-362.606
  20
287.375
  0
VERTEX
  8
MMIC_Label
  10
-362.584
  20
287.382
  0
VERTEX
  8
MMIC_Label
  10
-362.562
  20
287.388
  0
VERTEX
  8
MMIC_Label
  10
-362.539
  20
287.391
  0
VERTEX
  8
MMIC_Label
  10
-362.516
  20
287.392
  0
VERTEX
  8
MMIC_Label
  10
-362.498
  20
287.391
  0
VERTEX
  8
MMIC_Label
  10
-362.48
  20
287.388
  0
VERTEX
  8
MMIC_Label
  10
-362.463
  20
287.384
  0
VERTEX
  8
MMIC_Label
  10
-362.446
  20
287.378
  0
VERTEX
  8
MMIC_Label
  10
-362.43
  20
287.37
  0
VERTEX
  8
MMIC_Label
  10
-362.414
  20
287.361
  0
VERTEX
  8
MMIC_Label
  10
-362.4
  20
287.35
  0
VERTEX
  8
MMIC_Label
  10
-362.387
  20
287.337
  0
VERTEX
  8
MMIC_Label
  10
-362.375
  20
287.323
  0
VERTEX
  8
MMIC_Label
  10
-362.365
  20
287.309
  0
VERTEX
  8
MMIC_Label
  10
-362.356
  20
287.294
  0
VERTEX
  8
MMIC_Label
  10
-351.504
  20
265.749
  0
VERTEX
  8
MMIC_Label
  10
-351.504
  20
265.634
  0
VERTEX
  8
MMIC_Label
  10
-351.505
  20
265.623
  0
SEQEND
  0
POLYLINE
  8
MMIC_Label
  70
1
  66
1
  0
VERTEX
  8
MMIC_Label
  10
-596.7
  20
246.2
  0
VERTEX
  8
MMIC_Label
  10
-596.7
  20
310.6
  0
VERTEX
  8
MMIC_Label
  10
-601.7
  20
310.6
  0
VERTEX
  8
MMIC_Label
  10
-601.7
  20
246.2
  0
SEQEND
  0
POLYLINE
  8
MMIC_Label
  70
1
  66
1
  0
VERTEX
  8
MMIC_Label
  10
-496.7
  20
251.2
  0
VERTEX
  8
MMIC_Label
  10
-521.7
  20
251.2
  0
VERTEX
  8
MMIC_Label
  10
-521.7
  20
246.2
  0
VERTEX
  8
MMIC_Label
  10
-496.7
  20
246.2
  0
SEQEND
  0
POLYLINE
  8
MMIC_Label
  70
1
  66
1
  0
VERTEX
  8
MMIC_Label
  10
255.11
  20
229.6
  0
VERTEX
  8
MMIC_Label
  10
265.01
  20
246.1
  0
VERTEX
  8
MMIC_Label
  10
255.11
  20
262.6
  0
VERTEX
  8
MMIC_Label
  10
262.37
  20
262.6
  0
VERTEX
  8
MMIC_Label
  10
268.97
  20
251.71
  0
VERTEX
  8
MMIC_Label
  10
275.57
  20
262.6
  0
VERTEX
  8
MMIC_Label
  10
282.5
  20
262.6
  0
VERTEX
  8
MMIC_Label
  10
272.6
  20
246.1
  0
VERTEX
  8
MMIC_Label
  10
282.5
  20
229.6
  0
VERTEX
  8
MMIC_Label
  10
275.57
  20
229.6
  0
VERTEX
  8
MMIC_Label
  10
268.97
  20
240.49
  0
VERTEX
  8
MMIC_Label
  10
262.37
  20
229.6
  0
SEQEND
  0
POLYLINE
  8
MMIC_Label
  70
1
  66
1
  0
VERTEX
  8
MMIC_Label
  10
-416.7
  20
310.6
  0
VERTEX
  8
MMIC_Label
  10
-431.7
  20
310.6
  0
VERTEX
  8
MMIC_Label
  10
-431.7
  20
301
  0
VERTEX
  8
MMIC_Label
  10
-436.7
  20
301
  0
VERTEX
  8
MMIC_Label
  10
-436.7
  20
310.6
  0
VERTEX
  8
MMIC_Label
  10
-461.7
  20
310.6
  0
VERTEX
  8
MMIC_Label
  10
-461.7
  20
301
  0
VERTEX
  8
MMIC_Label
  10
-466.7
  20
301
  0
VERTEX
  8
MMIC_Label
  10
-466.7
  20
310.6
  0
VERTEX
  8
MMIC_Label
  10
-491.7
  20
310.6
  0
VERTEX
  8
MMIC_Label
  10
-491.7
  20
301
  0
VERTEX
  8
MMIC_Label
  10
-496.7
  20
301
  0
VERTEX
  8
MMIC_Label
  10
-496.7
  20
310.6
  0
VERTEX
  8
MMIC_Label
  10
-521.7
  20
310.6
  0
VERTEX
  8
MMIC_Label
  10
-521.7
  20
301
  0
VERTEX
  8
MMIC_Label
  10
-526.7
  20
301
  0
VERTEX
  8
MMIC_Label
  10
-526.7
  20
310.6
  0
VERTEX
  8
MMIC_Label
  10
-551.7
  20
310.6
  0
VERTEX
  8
MMIC_Label
  10
-551.7
  20
301
  0
VERTEX
  8
MMIC_Label
  10
-556.7
  20
301
  0
VERTEX
  8
MMIC_Label
  10
-556.7
  20
310.6
  0
VERTEX
  8
MMIC_Label
  10
-571.7
  20
310.6
  0
VERTEX
  8
MMIC_Label
  10
-571.7
  20
246.2
  0
VERTEX
  8
MMIC_Label
  10
-556.7
  20
246.2
  0
VERTEX
  8
MMIC_Label
  10
-556.7
  20
256.6
  0
VERTEX
  8
MMIC_Label
  10
-551.7
  20
256.6
  0
VERTEX
  8
MMIC_Label
  10
-551.7
  20
246.2
  0
VERTEX
  8
MMIC_Label
  10
-526.7
  20
246.2
  0
VERTEX
  8
MMIC_Label
  10
-526.7
  20
256.6
  0
VERTEX
  8
MMIC_Label
  10
-521.7
  20
256.6
  0
VERTEX
  8
MMIC_Label
  10
-521.7
  20
246.2
  0
VERTEX
  8
MMIC_Label
  10
-496.7
  20
246.2
  0
VERTEX
  8
MMIC_Label
  10
-496.7
  20
256.6
  0
VERTEX
  8
MMIC_Label
  10
-491.7
  20
256.6
  0
VERTEX
  8
MMIC_Label
  10
-491.7
  20
246.2
  0
VERTEX
  8
MMIC_Label
  10
-466.7
  20
246.2
  0
VERTEX
  8
MMIC_Label
  10
-466.7
  20
256.6
  0
VERTEX
  8
MMIC_Label
  10
-461.7
  20
256.6
  0
VERTEX
  8
MMIC_Label
  10
-461.7
  20
246.2
  0
VERTEX
  8
MMIC_Label
  10
-436.7
  20
246.2
  0
VERTEX
  8
MMIC_Label
  10
-436.7
  20
256.6
  0
VERTEX
  8
MMIC_Label
  10
-431.7
  20
256.6
  0
VERTEX
  8
MMIC_Label
  10
-431.7
  20
246.2
  0
VERTEX
  8
MMIC_Label
  10
-416.7
  20
246.2
  0
SEQEND
  0
POLYLINE
  8
MMIC_Label
  70
1
  66
1
  0
VERTEX
  8
MMIC_Label
  10
-456.352
  20
228.467
  0
VERTEX
  8
MMIC_Label
  10
-456.99
  20
229.766
  0
VERTEX
  8
MMIC_Label
  10
-457.634
  20
231.073
  0
VERTEX
  8
MMIC_Label
  10
-458.691
  20
231.578
  0
VERTEX
  8
MMIC_Label
  10
-457.864
  20
232.034
  0
VERTEX
  8
MMIC_Label
  10
-457.374
  20
233.044
  0
VERTEX
  8
MMIC_Label
  10
-456.888
  20
234.049
  0
VERTEX
  8
MMIC_Label
  10
-456.888
  20
237.516
  0
VERTEX
  8
MMIC_Label
  10
-457.949
  20
238.996
  0
VERTEX
  8
MMIC_Label
  10
-458.554
  20
239.84
  0
VERTEX
  8
MMIC_Label
  10
-459.021
  20
240.49
  0
VERTEX
  8
MMIC_Label
  10
-459.765
  20
240.49
  0
VERTEX
  8
MMIC_Label
  10
-459.765
  20
238.156
  0
VERTEX
  8
MMIC_Label
  10
-459.328
  20
237.525
  0
VERTEX
  8
MMIC_Label
  10
-459.166
  20
237.292
  0
VERTEX
  8
MMIC_Label
  10
-459.166
  20
233.587
  0
VERTEX
  8
MMIC_Label
  10
-459.31
  20
233.379
  0
VERTEX
  8
MMIC_Label
  10
-459.532
  20
233.06
  0
VERTEX
  8
MMIC_Label
  10
-461.987
  20
233.06
  0
VERTEX
  8
MMIC_Label
  10
-462.214
  20
233.387
  0
VERTEX
  8
MMIC_Label
  10
-462.394
  20
233.646
  0
VERTEX
  8
MMIC_Label
  10
-462.394
  20
237.278
  0
VERTEX
  8
MMIC_Label
  10
-461.765
  20
238.171
  0
VERTEX
  8
MMIC_Label
  10
-461.765
  20
240.49
  0
VERTEX
  8
MMIC_Label
  10
-462.535
  20
240.49
  0
VERTEX
  8
MMIC_Label
  10
-463.589
  20
239.029
  0
VERTEX
  8
MMIC_Label
  10
-464.634
  20
237.582
  0
VERTEX
  8
MMIC_Label
  10
-464.634
  20
234.063
  0
VERTEX
  8
MMIC_Label
  10
-463.646
  20
232.033
  0
VERTEX
  8
MMIC_Label
  10
-462.941
  20
231.654
  0
VERTEX
  8
MMIC_Label
  10
-462.814
  20
231.586
  0
VERTEX
  8
MMIC_Label
  10
-463.839
  20
231.194
  0
VERTEX
  8
MMIC_Label
  10
-464.503
  20
229.904
  0
VERTEX
  8
MMIC_Label
  10
-465.158
  20
228.626
  0
VERTEX
  8
MMIC_Label
  10
-465.158
  20
224.204
  0
VERTEX
  8
MMIC_Label
  10
-463.956
  20
222.507
  0
VERTEX
  8
MMIC_Label
  10
-463.494
  20
221.85
  0
VERTEX
  8
MMIC_Label
  10
-462.74
  20
220.79
  0
VERTEX
  8
MMIC_Label
  10
-461.643
  20
220.79
  0
VERTEX
  8
MMIC_Label
  10
-461.643
  20
223.079
  0
VERTEX
  8
MMIC_Label
  10
-462.055
  20
223.41
  0
VERTEX
  8
MMIC_Label
  10
-462.403
  20
223.689
  0
VERTEX
  8
MMIC_Label
  10
-463.012
  20
225.439
  0
VERTEX
  8
MMIC_Label
  10
-463.012
  20
228.775
  0
VERTEX
  8
MMIC_Label
  10
-462.583
  20
229.404
  0
VERTEX
  8
MMIC_Label
  10
-461.871
  20
230.454
  0
VERTEX
  8
MMIC_Label
  10
-459.686
  20
230.454
  0
VERTEX
  8
MMIC_Label
  10
-458.944
  20
229.391
  0
VERTEX
  8
MMIC_Label
  10
-458.532
  20
228.798
  0
VERTEX
  8
MMIC_Label
  10
-458.532
  20
224.52
  0
VERTEX
  8
MMIC_Label
  10
-458.922
  20
223.955
  0
VERTEX
  8
MMIC_Label
  10
-459.642
  20
222.918
  0
VERTEX
  8
MMIC_Label
  10
-459.642
  20
220.79
  0
VERTEX
  8
MMIC_Label
  10
-458.77
  20
220.79
  0
VERTEX
  8
MMIC_Label
  10
-457.556
  20
222.498
  0
VERTEX
  8
MMIC_Label
  10
-456.352
  20
224.192
  0
SEQEND
  0
POLYLINE
  8
MMIC_Label
  70
1
  66
1
  0
VERTEX
  8
MMIC_Label
  10
-545.628
  20
240.79
  0
VERTEX
  8
MMIC_Label
  10
-547.024
  20
240.79
  0
VERTEX
  8
MMIC_Label
  10
-547.54
  20
239.451
  0
VERTEX
  8
MMIC_Label
  10
-548.723
  20
238.093
  0
VERTEX
  8
MMIC_Label
  10
-549.909
  20
236.732
  0
VERTEX
  8
MMIC_Label
  10
-551.541
  20
235.746
  0
VERTEX
  8
MMIC_Label
  10
-551.541
  20
233.222
  0
VERTEX
  8
MMIC_Label
  10
-551.517
  20
233.206
  0
VERTEX
  8
MMIC_Label
  10
-551.492
  20
233.191
  0
VERTEX
  8
MMIC_Label
  10
-550.501
  20
233.661
  0
VERTEX
  8
MMIC_Label
  10
-549.376
  20
234.509
  0
VERTEX
  8
MMIC_Label
  10
-548.25
  20
235.359
  0
VERTEX
  8
MMIC_Label
  10
-547.732
  20
235.993
  0
VERTEX
  8
MMIC_Label
  10
-547.732
  20
220.59
  0
VERTEX
  8
MMIC_Label
  10
-545.628
  20
220.59
  0
SEQEND
  0
POLYLINE
  8
MMIC_Label
  70
1
  66
1
  0
VERTEX
  8
MMIC_Label
  10
-493.1
  20
220.69
  0
VERTEX
  8
MMIC_Label
  10
-497.279
  20
228.326
  0
VERTEX
  8
MMIC_Label
  10
-493.396
  20
235.119
  0
VERTEX
  8
MMIC_Label
  10
-496.221
  20
235.119
  0
VERTEX
  8
MMIC_Label
  10
-498.114
  20
231.709
  0
VERTEX
  8
MMIC_Label
  10
-498.506
  20
231.016
  0
VERTEX
  8
MMIC_Label
  10
-498.971
  20
230.119
  0
VERTEX
  8
MMIC_Label
  10
-499.268
  20
230.772
  0
VERTEX
  8
MMIC_Label
  10
-499.754
  20
231.736
  0
VERTEX
  8
MMIC_Label
  10
-501.479
  20
235.119
  0
VERTEX
  8
MMIC_Label
  10
-504.409
  20
235.119
  0
VERTEX
  8
MMIC_Label
  10
-500.611
  20
228.19
  0
VERTEX
  8
MMIC_Label
  10
-504.716
  20
220.69
  0
VERTEX
  8
MMIC_Label
  10
-501.86
  20
220.69
  0
VERTEX
  8
MMIC_Label
  10
-498.908
  20
226.383
  0
VERTEX
  8
MMIC_Label
  10
-498.294
  20
225.174
  0
VERTEX
  8
MMIC_Label
  10
-495.988
  20
220.69
  0
SEQEND
  0
POLYLINE
  8
MMIC_Label
  70
1
  66
1
  0
VERTEX
  8
MMIC_Label
  10
-431.7
  20
310.6
  0
VERTEX
  8
MMIC_Label
  10
-416.7
  20
310.6
  0
VERTEX
  8
MMIC_Label
  10
-416.7
  20
305.6
  0
VERTEX
  8
MMIC_Label
  10
-431.7
  20
305.6
  0
SEQEND
  0
POLYLINE
  8
MMIC_Label
  70
1
  66
1
  0
VERTEX
  8
MMIC_Label
  10
-551.7
  20
310.6
  0
VERTEX
  8
MMIC_Label
  10
-526.7
  20
310.6
  0
VERTEX
  8
MMIC_Label
  10
-526.7
  20
305.6
  0
VERTEX
  8
MMIC_Label
  10
-551.7
  20
305.6
  0
SEQEND
  0
POLYLINE
  8
MMIC_Label
  70
1
  66
1
  0
VERTEX
  8
MMIC_Label
  10
118.5
  20
252.04
  0
VERTEX
  8
MMIC_Label
  10
117.84
  20
254.35
  0
VERTEX
  8
MMIC_Label
  10
116.85
  20
256.66
  0
VERTEX
  8
MMIC_Label
  10
115.53
  20
258.31
  0
VERTEX
  8
MMIC_Label
  10
113.88
  20
259.96
  0
VERTEX
  8
MMIC_Label
  10
112.23
  20
261.28
  0
VERTEX
  8
MMIC_Label
  10
109.92
  20
262.27
  0
VERTEX
  8
MMIC_Label
  10
107.94
  20
262.6
  0
VERTEX
  8
MMIC_Label
  10
102.66
  20
262.6
  0
VERTEX
  8
MMIC_Label
  10
100.35
  20
262.27
  0
VERTEX
  8
MMIC_Label
  10
98.04
  20
260.95
  0
VERTEX
  8
MMIC_Label
  10
96.39
  20
259.63
  0
VERTEX
  8
MMIC_Label
  10
94.74
  20
257.98
  0
VERTEX
  8
MMIC_Label
  10
93.42
  20
255.67
  0
VERTEX
  8
MMIC_Label
  10
92.43
  20
253.69
  0
VERTEX
  8
MMIC_Label
  10
91.77
  20
251.05
  0
VERTEX
  8
MMIC_Label
  10
91.44
  20
248.74
  0
VERTEX
  8
MMIC_Label
  10
91.11
  20
246.1
  0
VERTEX
  8
MMIC_Label
  10
91.44
  20
243.46
  0
VERTEX
  8
MMIC_Label
  10
91.77
  20
241.15
  0
VERTEX
  8
MMIC_Label
  10
92.43
  20
238.51
  0
VERTEX
  8
MMIC_Label
  10
93.42
  20
236.53
  0
VERTEX
  8
MMIC_Label
  10
94.74
  20
234.22
  0
VERTEX
  8
MMIC_Label
  10
96.39
  20
232.57
  0
VERTEX
  8
MMIC_Label
  10
98.04
  20
231.25
  0
VERTEX
  8
MMIC_Label
  10
100.35
  20
229.93
  0
VERTEX
  8
MMIC_Label
  10
102.66
  20
229.6
  0
VERTEX
  8
MMIC_Label
  10
107.28
  20
229.6
  0
VERTEX
  8
MMIC_Label
  10
109.26
  20
229.93
  0
VERTEX
  8
MMIC_Label
  10
112.56
  20
231.91
  0
VERTEX
  8
MMIC_Label
  10
113.55
  20
233.56
  0
VERTEX
  8
MMIC_Label
  10
114.87
  20
229.6
  0
VERTEX
  8
MMIC_Label
  10
118.5
  20
229.6
  0
VERTEX
  8
MMIC_Label
  10
118.5
  20
246.1
  0
VERTEX
  8
MMIC_Label
  10
105.96
  20
246.1
  0
VERTEX
  8
MMIC_Label
  10
105.96
  20
241.15
  0
VERTEX
  8
MMIC_Label
  10
111.9
  20
241.15
  0
VERTEX
  8
MMIC_Label
  10
111.57
  20
239.5
  0
VERTEX
  8
MMIC_Label
  10
110.91
  20
237.85
  0
VERTEX
  8
MMIC_Label
  10
109.92
  20
236.53
  0
VERTEX
  8
MMIC_Label
  10
108.6
  20
235.54
  0
VERTEX
  8
MMIC_Label
  10
107.28
  20
234.88
  0
VERTEX
  8
MMIC_Label
  10
105.3
  20
234.55
  0
VERTEX
  8
MMIC_Label
  10
103.65
  20
234.88
  0
VERTEX
  8
MMIC_Label
  10
102
  20
235.54
  0
VERTEX
  8
MMIC_Label
  10
100.68
  20
236.53
  0
VERTEX
  8
MMIC_Label
  10
99.36
  20
238.18
  0
VERTEX
  8
MMIC_Label
  10
98.7
  20
239.83
  0
VERTEX
  8
MMIC_Label
  10
98.04
  20
241.81
  0
VERTEX
  8
MMIC_Label
  10
97.71
  20
243.79
  0
VERTEX
  8
MMIC_Label
  10
97.71
  20
248.41
  0
VERTEX
  8
MMIC_Label
  10
98.04
  20
250.39
  0
VERTEX
  8
MMIC_Label
  10
98.7
  20
252.37
  0
VERTEX
  8
MMIC_Label
  10
99.36
  20
254.02
  0
VERTEX
  8
MMIC_Label
  10
100.68
  20
255.67
  0
VERTEX
  8
MMIC_Label
  10
102
  20
256.66
  0
VERTEX
  8
MMIC_Label
  10
103.65
  20
257.32
  0
VERTEX
  8
MMIC_Label
  10
105.3
  20
257.65
  0
VERTEX
  8
MMIC_Label
  10
107.28
  20
257.32
  0
VERTEX
  8
MMIC_Label
  10
108.93
  20
256.33
  0
VERTEX
  8
MMIC_Label
  10
110.25
  20
255.34
  0
VERTEX
  8
MMIC_Label
  10
111.24
  20
253.69
  0
VERTEX
  8
MMIC_Label
  10
111.9
  20
252.04
  0
SEQEND
  0
POLYLINE
  8
MMIC_Label
  70
1
  66
1
  0
VERTEX
  8
MMIC_Label
  10
189.51
  20
229.6
  0
VERTEX
  8
MMIC_Label
  10
189.51
  20
262.6
  0
VERTEX
  8
MMIC_Label
  10
216.9
  20
262.6
  0
VERTEX
  8
MMIC_Label
  10
216.9
  20
256.99
  0
VERTEX
  8
MMIC_Label
  10
196.11
  20
256.99
  0
VERTEX
  8
MMIC_Label
  10
196.11
  20
248.74
  0
VERTEX
  8
MMIC_Label
  10
214.26
  20
248.74
  0
VERTEX
  8
MMIC_Label
  10
214.26
  20
243.46
  0
VERTEX
  8
MMIC_Label
  10
196.11
  20
243.46
  0
VERTEX
  8
MMIC_Label
  10
196.11
  20
229.6
  0
SEQEND
  0
POLYLINE
  8
MMIC_Label
  70
1
  66
1
  0
VERTEX
  8
MMIC_Label
  10
-531.7
  20
301.3
  0
VERTEX
  8
MMIC_Label
  10
-516.7
  20
301.3
  0
VERTEX
  8
MMIC_Label
  10
-516.7
  20
286.3
  0
VERTEX
  8
MMIC_Label
  10
-531.7
  20
286.3
  0
SEQEND
  0
POLYLINE
  8
MMIC_Label
  70
1
  66
1
  0
VERTEX
  8
MMIC_Label
  10
183.11
  20
253.36
  0
VERTEX
  8
MMIC_Label
  10
182.78
  20
255.67
  0
VERTEX
  8
MMIC_Label
  10
181.79
  20
257.65
  0
VERTEX
  8
MMIC_Label
  10
180.47
  20
259.3
  0
VERTEX
  8
MMIC_Label
  10
178.82
  20
260.62
  0
VERTEX
  8
MMIC_Label
  10
176.84
  20
261.61
  0
VERTEX
  8
MMIC_Label
  10
174.53
  20
262.6
  0
VERTEX
  8
MMIC_Label
  10
166.28
  20
262.6
  0
VERTEX
  8
MMIC_Label
  10
162.32
  20
261.28
  0
VERTEX
  8
MMIC_Label
  10
160.34
  20
259.96
  0
VERTEX
  8
MMIC_Label
  10
159.02
  20
258.31
  0
VERTEX
  8
MMIC_Label
  10
158.03
  20
256.33
  0
VERTEX
  8
MMIC_Label
  10
157.7
  20
253.69
  0
VERTEX
  8
MMIC_Label
  10
158.36
  20
251.38
  0
VERTEX
  8
MMIC_Label
  10
159.35
  20
249.07
  0
VERTEX
  8
MMIC_Label
  10
161
  20
247.42
  0
VERTEX
  8
MMIC_Label
  10
162.65
  20
246.1
  0
VERTEX
  8
MMIC_Label
  10
164.63
  20
245.11
  0
VERTEX
  8
MMIC_Label
  10
166.61
  20
244.45
  0
VERTEX
  8
MMIC_Label
  10
172.55
  20
242.14
  0
VERTEX
  8
MMIC_Label
  10
175.19
  20
241.48
  0
VERTEX
  8
MMIC_Label
  10
177.17
  20
239.5
  0
VERTEX
  8
MMIC_Label
  10
177.5
  20
237.85
  0
VERTEX
  8
MMIC_Label
  10
177.17
  20
236.2
  0
VERTEX
  8
MMIC_Label
  10
175.85
  20
235.21
  0
VERTEX
  8
MMIC_Label
  10
173.21
  20
234.55
  0
VERTEX
  8
MMIC_Label
  10
170.57
  20
234.55
  0
VERTEX
  8
MMIC_Label
  10
167.27
  20
235.21
  0
VERTEX
  8
MMIC_Label
  10
165.95
  20
235.87
  0
VERTEX
  8
MMIC_Label
  10
164.63
  20
236.86
  0
VERTEX
  8
MMIC_Label
  10
163.64
  20
238.18
  0
VERTEX
  8
MMIC_Label
  10
163.31
  20
240.16
  0
VERTEX
  8
MMIC_Label
  10
156.71
  20
240.16
  0
VERTEX
  8
MMIC_Label
  10
157.04
  20
237.52
  0
VERTEX
  8
MMIC_Label
  10
158.03
  20
235.21
  0
VERTEX
  8
MMIC_Label
  10
159.68
  20
233.23
  0
VERTEX
  8
MMIC_Label
  10
161.33
  20
231.91
  0
VERTEX
  8
MMIC_Label
  10
163.64
  20
230.59
  0
VERTEX
  8
MMIC_Label
  10
165.62
  20
229.6
  0
VERTEX
  8
MMIC_Label
  10
174.86
  20
229.6
  0
VERTEX
  8
MMIC_Label
  10
177.17
  20
229.93
  0
VERTEX
  8
MMIC_Label
  10
179.15
  20
230.92
  0
VERTEX
  8
MMIC_Label
  10
181.13
  20
232.24
  0
VERTEX
  8
MMIC_Label
  10
182.78
  20
233.89
  0
VERTEX
  8
MMIC_Label
  10
183.77
  20
235.87
  0
VERTEX
  8
MMIC_Label
  10
184.1
  20
238.51
  0
VERTEX
  8
MMIC_Label
  10
183.77
  20
240.82
  0
VERTEX
  8
MMIC_Label
  10
183.11
  20
242.8
  0
VERTEX
  8
MMIC_Label
  10
181.79
  20
244.45
  0
VERTEX
  8
MMIC_Label
  10
180.14
  20
245.77
  0
VERTEX
  8
MMIC_Label
  10
178.16
  20
246.76
  0
VERTEX
  8
MMIC_Label
  10
176.51
  20
247.75
  0
VERTEX
  8
MMIC_Label
  10
174.86
  20
248.41
  0
VERTEX
  8
MMIC_Label
  10
168.26
  20
250.39
  0
VERTEX
  8
MMIC_Label
  10
166.94
  20
251.05
  0
VERTEX
  8
MMIC_Label
  10
165.95
  20
251.71
  0
VERTEX
  8
MMIC_Label
  10
164.96
  20
252.7
  0
VERTEX
  8
MMIC_Label
  10
164.3
  20
254.35
  0
VERTEX
  8
MMIC_Label
  10
164.96
  20
256
  0
VERTEX
  8
MMIC_Label
  10
166.28
  20
256.99
  0
VERTEX
  8
MMIC_Label
  10
167.6
  20
257.32
  0
VERTEX
  8
MMIC_Label
  10
169.25
  20
257.65
  0
VERTEX
  8
MMIC_Label
  10
170.57
  20
257.65
  0
VERTEX
  8
MMIC_Label
  10
171.89
  20
257.32
  0
VERTEX
  8
MMIC_Label
  10
173.54
  20
256.99
  0
VERTEX
  8
MMIC_Label
  10
175.19
  20
256.33
  0
VERTEX
  8
MMIC_Label
  10
176.51
  20
255.01
  0
VERTEX
  8
MMIC_Label
  10
177.17
  20
253.36
  0
SEQEND
  0
POLYLINE
  8
MMIC_Label
  70
1
  66
1
  0
VERTEX
  8
MMIC_Label
  10
-416.359
  20
226.123
  0
VERTEX
  8
MMIC_Label
  10
-416.955
  20
230.597
  0
VERTEX
  8
MMIC_Label
  10
-416.958
  20
230.606
  0
VERTEX
  8
MMIC_Label
  10
-418.866
  20
233.66
  0
VERTEX
  8
MMIC_Label
  10
-423.547
  20
233.66
  0
VERTEX
  8
MMIC_Label
  10
-423.547
  20
230.89
  0
VERTEX
  8
MMIC_Label
  10
-420.095
  20
230.89
  0
VERTEX
  8
MMIC_Label
  10
-419.652
  20
230.391
  0
VERTEX
  8
MMIC_Label
  10
-419.353
  20
229.914
  0
VERTEX
  8
MMIC_Label
  10
-418.874
  20
226.331
  0
VERTEX
  8
MMIC_Label
  10
-419.866
  20
224.015
  0
VERTEX
  8
MMIC_Label
  10
-420.039
  20
223.756
  0
VERTEX
  8
MMIC_Label
  10
-421.274
  20
223.101
  0
VERTEX
  8
MMIC_Label
  10
-423.123
  20
223.185
  0
VERTEX
  8
MMIC_Label
  10
-424.357
  20
223.432
  0
VERTEX
  8
MMIC_Label
  10
-425.163
  20
223.969
  0
VERTEX
  8
MMIC_Label
  10
-425.947
  20
225.616
  0
VERTEX
  8
MMIC_Label
  10
-425.947
  20
237.53
  0
VERTEX
  8
MMIC_Label
  10
-425.892
  20
237.967
  0
VERTEX
  8
MMIC_Label
  10
-424.978
  20
239.034
  0
VERTEX
  8
MMIC_Label
  10
-424.629
  20
239.267
  0
VERTEX
  8
MMIC_Label
  10
-423.354
  20
239.607
  0
VERTEX
  8
MMIC_Label
  10
-422.767
  20
239.68
  0
VERTEX
  8
MMIC_Label
  10
-420.859
  20
239.362
  0
VERTEX
  8
MMIC_Label
  10
-420.352
  20
238.791
  0
VERTEX
  8
MMIC_Label
  10
-419.979
  20
238.194
  0
VERTEX
  8
MMIC_Label
  10
-419.717
  20
237.147
  0
VERTEX
  8
MMIC_Label
  10
-417.558
  20
237.688
  0
VERTEX
  8
MMIC_Label
  10
-418.011
  20
239.502
  0
VERTEX
  8
MMIC_Label
  10
-418.04
  20
239.548
  0
VERTEX
  8
MMIC_Label
  10
-419.993
  20
241.744
  0
VERTEX
  8
MMIC_Label
  10
-422.727
  20
242.2
  0
VERTEX
  8
MMIC_Label
  10
-423.74
  20
242.073
  0
VERTEX
  8
MMIC_Label
  10
-425.743
  20
241.539
  0
VERTEX
  8
MMIC_Label
  10
-428.504
  20
238.32
  0
VERTEX
  8
MMIC_Label
  10
-428.587
  20
237.65
  0
VERTEX
  8
MMIC_Label
  10
-428.587
  20
225.164
  0
VERTEX
  8
MMIC_Label
  10
-426.93
  20
221.683
  0
VERTEX
  8
MMIC_Label
  10
-425.557
  20
220.768
  0
VERTEX
  8
MMIC_Label
  10
-423.791
  20
220.415
  0
VERTEX
  8
MMIC_Label
  10
-420.441
  20
220.263
  0
VERTEX
  8
MMIC_Label
  10
-418.928
  20
221.062
  0
VERTEX
  8
MMIC_Label
  10
-417.808
  20
222.745
  0
SEQEND
  0
POLYLINE
  8
MMIC_Label
  70
1
  66
1
  0
VERTEX
  8
MMIC_Label
  10
68.21
  20
241.15
  0
VERTEX
  8
MMIC_Label
  10
72.17
  20
255.34
  0
VERTEX
  8
MMIC_Label
  10
75.8
  20
241.15
  0
SEQEND
  0
POLYLINE
  8
MMIC_Label
  70
1
  66
1
  0
VERTEX
  8
MMIC_Label
  10
-483.297
  20
227.63
  0
VERTEX
  8
MMIC_Label
  10
-490.607
  20
227.63
  0
VERTEX
  8
MMIC_Label
  10
-487.208
  20
234.92
  0
VERTEX
  8
MMIC_Label
  10
-486.96
  20
234.92
  0
VERTEX
  8
MMIC_Label
  10
-486.96
  20
230.09
  0
VERTEX
  8
MMIC_Label
  10
-484.441
  20
230.09
  0
VERTEX
  8
MMIC_Label
  10
-484.441
  20
240.79
  0
VERTEX
  8
MMIC_Label
  10
-486.62
  20
240.79
  0
VERTEX
  8
MMIC_Label
  10
-491.154
  20
231.203
  0
VERTEX
  8
MMIC_Label
  10
-492.786
  20
227.752
  0
VERTEX
  8
MMIC_Label
  10
-492.786
  20
225.379
  0
VERTEX
  8
MMIC_Label
  10
-487.63
  20
225.379
  0
VERTEX
  8
MMIC_Label
  10
-487.63
  20
220.59
  0
VERTEX
  8
MMIC_Label
  10
-485.111
  20
220.59
  0
VERTEX
  8
MMIC_Label
  10
-485.111
  20
225.379
  0
VERTEX
  8
MMIC_Label
  10
-483.297
  20
225.379
  0
SEQEND
  0
POLYLINE
  8
MMIC_Label
  70
1
  66
1
  0
VERTEX
  8
MMIC_Label
  10
-571.7
  20
310.6
  0
VERTEX
  8
MMIC_Label
  10
-416.7
  20
310.6
  0
VERTEX
  8
MMIC_Label
  10
-416.7
  20
246.2
  0
VERTEX
  8
MMIC_Label
  10
-571.7
  20
246.2
  0
SEQEND
  0
POLYLINE
  8
MMIC_Label
  70
1
  66
1
  0
VERTEX
  8
MMIC_Label
  10
-556.7
  20
251.2
  0
VERTEX
  8
MMIC_Label
  10
-581.7
  20
251.2
  0
VERTEX
  8
MMIC_Label
  10
-581.7
  20
246.2
  0
VERTEX
  8
MMIC_Label
  10
-556.7
  20
246.2
  0
SEQEND
  0
POLYLINE
  8
MMIC_Label
  70
1
  66
1
  0
VERTEX
  8
MMIC_Label
  10
-431.675
  20
240.79
  0
VERTEX
  8
MMIC_Label
  10
-434.091
  20
240.79
  0
VERTEX
  8
MMIC_Label
  10
-435.417
  20
237.351
  0
VERTEX
  8
MMIC_Label
  10
-435.956
  20
236.732
  0
VERTEX
  8
MMIC_Label
  10
-437.588
  20
235.746
  0
VERTEX
  8
MMIC_Label
  10
-437.588
  20
233.222
  0
VERTEX
  8
MMIC_Label
  10
-437.564
  20
233.206
  0
VERTEX
  8
MMIC_Label
  10
-437.539
  20
233.191
  0
VERTEX
  8
MMIC_Label
  10
-436.548
  20
233.661
  0
VERTEX
  8
MMIC_Label
  10
-435.423
  20
234.509
  0
VERTEX
  8
MMIC_Label
  10
-435.419
  20
234.512
  0
VERTEX
  8
MMIC_Label
  10
-435.137
  20
234.857
  0
VERTEX
  8
MMIC_Label
  10
-435.137
  20
234.82
  0
VERTEX
  8
MMIC_Label
  10
-434.209
  20
234.82
  0
VERTEX
  8
MMIC_Label
  10
-434.209
  20
220.59
  0
VERTEX
  8
MMIC_Label
  10
-431.675
  20
220.59
  0
SEQEND
  0
POLYLINE
  8
MMIC_Label
  70
1
  66
1
  0
VERTEX
  8
MMIC_Label
  10
-493.1
  20
220.69
  0
VERTEX
  8
MMIC_Label
  10
-497.279
  20
228.326
  0
VERTEX
  8
MMIC_Label
  10
-493.396
  20
235.119
  0
VERTEX
  8
MMIC_Label
  10
-496.221
  20
235.119
  0
VERTEX
  8
MMIC_Label
  10
-498.114
  20
231.709
  0
VERTEX
  8
MMIC_Label
  10
-498.506
  20
231.016
  0
VERTEX
  8
MMIC_Label
  10
-498.971
  20
230.119
  0
VERTEX
  8
MMIC_Label
  10
-499.268
  20
230.772
  0
VERTEX
  8
MMIC_Label
  10
-499.754
  20
231.736
  0
VERTEX
  8
MMIC_Label
  10
-501.479
  20
235.119
  0
VERTEX
  8
MMIC_Label
  10
-504.409
  20
235.119
  0
VERTEX
  8
MMIC_Label
  10
-500.611
  20
228.19
  0
VERTEX
  8
MMIC_Label
  10
-504.716
  20
220.69
  0
VERTEX
  8
MMIC_Label
  10
-501.86
  20
220.69
  0
VERTEX
  8
MMIC_Label
  10
-498.908
  20
226.383
  0
VERTEX
  8
MMIC_Label
  10
-498.294
  20
225.174
  0
VERTEX
  8
MMIC_Label
  10
-495.988
  20
220.69
  0
SEQEND
  0
POLYLINE
  8
MMIC_Label
  70
1
  66
1
  0
VERTEX
  8
MMIC_Label
  10
-461.7
  20
310.6
  0
VERTEX
  8
MMIC_Label
  10
-436.7
  20
310.6
  0
VERTEX
  8
MMIC_Label
  10
-436.7
  20
305.6
  0
VERTEX
  8
MMIC_Label
  10
-461.7
  20
305.6
  0
SEQEND
  0
POLYLINE
  8
MMIC_Label
  70
1
  66
1
  0
VERTEX
  8
MMIC_Label
  10
-601.7
  20
310.6
  0
VERTEX
  8
MMIC_Label
  10
-586.7
  20
310.6
  0
VERTEX
  8
MMIC_Label
  10
-586.7
  20
305.6
  0
VERTEX
  8
MMIC_Label
  10
-601.7
  20
305.6
  0
SEQEND
  0
POLYLINE
  8
MMIC_Label
  70
1
  66
1
  0
VERTEX
  8
MMIC_Label
  10
-536.7
  20
246.2
  0
VERTEX
  8
MMIC_Label
  10
-536.7
  20
310.6
  0
VERTEX
  8
MMIC_Label
  10
-541.7
  20
310.6
  0
VERTEX
  8
MMIC_Label
  10
-541.7
  20
246.2
  0
SEQEND
  0
POLYLINE
  8
MMIC_Label
  70
1
  66
1
  0
VERTEX
  8
MMIC_Label
  10
-491.7
  20
310.6
  0
VERTEX
  8
MMIC_Label
  10
-466.7
  20
310.6
  0
VERTEX
  8
MMIC_Label
  10
-466.7
  20
305.6
  0
VERTEX
  8
MMIC_Label
  10
-491.7
  20
305.6
  0
SEQEND
  0
POLYLINE
  8
MMIC_Label
  70
1
  66
1
  0
VERTEX
  8
MMIC_Label
  10
261.76
  20
277.6
  0
VERTEX
  8
MMIC_Label
  10
261.76
  20
282.55
  0
VERTEX
  8
MMIC_Label
  10
269.02
  20
282.55
  0
VERTEX
  8
MMIC_Label
  10
269.02
  20
299.71
  0
VERTEX
  8
MMIC_Label
  10
260.11
  20
299.71
  0
VERTEX
  8
MMIC_Label
  10
260.11
  20
304
  0
VERTEX
  8
MMIC_Label
  10
261.76
  20
304
  0
VERTEX
  8
MMIC_Label
  10
263.74
  20
304.33
  0
VERTEX
  8
MMIC_Label
  10
265.72
  20
304.99
  0
VERTEX
  8
MMIC_Label
  10
267.37
  20
305.65
  0
VERTEX
  8
MMIC_Label
  10
268.69
  20
306.97
  0
VERTEX
  8
MMIC_Label
  10
269.68
  20
308.62
  0
VERTEX
  8
MMIC_Label
  10
270.01
  20
310.6
  0
VERTEX
  8
MMIC_Label
  10
275.62
  20
310.6
  0
VERTEX
  8
MMIC_Label
  10
275.62
  20
282.55
  0
VERTEX
  8
MMIC_Label
  10
282.88
  20
282.55
  0
VERTEX
  8
MMIC_Label
  10
282.88
  20
277.6
  0
SEQEND
  0
POLYLINE
  8
MMIC_Label
  70
1
  66
1
  0
VERTEX
  8
MMIC_Label
  10
314.31
  20
303.34
  0
VERTEX
  8
MMIC_Label
  10
313.32
  20
305.32
  0
VERTEX
  8
MMIC_Label
  10
312
  20
307.3
  0
VERTEX
  8
MMIC_Label
  10
310.35
  20
308.62
  0
VERTEX
  8
MMIC_Label
  10
306.39
  20
310.6
  0
VERTEX
  8
MMIC_Label
  10
299.46
  20
310.6
  0
VERTEX
  8
MMIC_Label
  10
297.15
  20
310.27
  0
VERTEX
  8
MMIC_Label
  10
294.84
  20
308.95
  0
VERTEX
  8
MMIC_Label
  10
292.86
  20
307.63
  0
VERTEX
  8
MMIC_Label
  10
291.54
  20
305.98
  0
VERTEX
  8
MMIC_Label
  10
290.22
  20
303.67
  0
VERTEX
  8
MMIC_Label
  10
289.23
  20
301.69
  0
VERTEX
  8
MMIC_Label
  10
288.24
  20
299.05
  0
VERTEX
  8
MMIC_Label
  10
287.91
  20
296.74
  0
VERTEX
  8
MMIC_Label
  10
287.91
  20
291.46
  0
VERTEX
  8
MMIC_Label
  10
288.24
  20
289.15
  0
VERTEX
  8
MMIC_Label
  10
289.23
  20
286.51
  0
VERTEX
  8
MMIC_Label
  10
290.22
  20
284.53
  0
VERTEX
  8
MMIC_Label
  10
291.54
  20
282.22
  0
VERTEX
  8
MMIC_Label
  10
292.86
  20
280.57
  0
VERTEX
  8
MMIC_Label
  10
294.84
  20
279.25
  0
VERTEX
  8
MMIC_Label
  10
297.15
  20
277.93
  0
VERTEX
  8
MMIC_Label
  10
299.46
  20
277.6
  0
VERTEX
  8
MMIC_Label
  10
306.39
  20
277.6
  0
VERTEX
  8
MMIC_Label
  10
308.37
  20
278.26
  0
VERTEX
  8
MMIC_Label
  10
310.35
  20
279.58
  0
VERTEX
  8
MMIC_Label
  10
312
  20
280.9
  0
VERTEX
  8
MMIC_Label
  10
313.32
  20
282.22
  0
VERTEX
  8
MMIC_Label
  10
314.64
  20
284.2
  0
VERTEX
  8
MMIC_Label
  10
315.3
  20
286.18
  0
VERTEX
  8
MMIC_Label
  10
315.3
  20
288.49
  0
VERTEX
  8
MMIC_Label
  10
314.97
  20
290.8
  0
VERTEX
  8
MMIC_Label
  10
314.31
  20
293.11
  0
VERTEX
  8
MMIC_Label
  10
311.67
  20
296.41
  0
VERTEX
  8
MMIC_Label
  10
307.71
  20
298.39
  0
VERTEX
  8
MMIC_Label
  10
305.4
  20
299.05
  0
VERTEX
  8
MMIC_Label
  10
303.42
  20
299.05
  0
VERTEX
  8
MMIC_Label
  10
300.78
  20
298.72
  0
VERTEX
  8
MMIC_Label
  10
298.47
  20
298.06
  0
VERTEX
  8
MMIC_Label
  10
296.49
  20
296.74
  0
VERTEX
  8
MMIC_Label
  10
294.51
  20
295.09
  0
VERTEX
  8
MMIC_Label
  10
294.51
  20
297.07
  0
VERTEX
  8
MMIC_Label
  10
294.84
  20
298.72
  0
VERTEX
  8
MMIC_Label
  10
295.5
  20
300.7
  0
VERTEX
  8
MMIC_Label
  10
297.48
  20
304
  0
VERTEX
  8
MMIC_Label
  10
298.8
  20
304.99
  0
VERTEX
  8
MMIC_Label
  10
300.78
  20
305.98
  0
VERTEX
  8
MMIC_Label
  10
302.76
  20
306.31
  0
VERTEX
  8
MMIC_Label
  10
304.41
  20
305.98
  0
VERTEX
  8
MMIC_Label
  10
307.05
  20
304.66
  0
VERTEX
  8
MMIC_Label
  10
308.37
  20
303.34
  0
SEQEND
  0
POLYLINE
  8
MMIC_Label
  70
1
  66
1
  0
VERTEX
  8
MMIC_Label
  10
-456.352
  20
228.467
  0
VERTEX
  8
MMIC_Label
  10
-456.99
  20
229.766
  0
VERTEX
  8
MMIC_Label
  10
-457.634
  20
231.073
  0
VERTEX
  8
MMIC_Label
  10
-458.691
  20
231.578
  0
VERTEX
  8
MMIC_Label
  10
-457.864
  20
232.034
  0
VERTEX
  8
MMIC_Label
  10
-457.374
  20
233.044
  0
VERTEX
  8
MMIC_Label
  10
-456.888
  20
234.049
  0
VERTEX
  8
MMIC_Label
  10
-456.888
  20
237.516
  0
VERTEX
  8
MMIC_Label
  10
-457.949
  20
238.996
  0
VERTEX
  8
MMIC_Label
  10
-458.554
  20
239.84
  0
VERTEX
  8
MMIC_Label
  10
-459.021
  20
240.49
  0
VERTEX
  8
MMIC_Label
  10
-459.765
  20
240.49
  0
VERTEX
  8
MMIC_Label
  10
-459.765
  20
238.156
  0
VERTEX
  8
MMIC_Label
  10
-459.328
  20
237.525
  0
VERTEX
  8
MMIC_Label
  10
-459.166
  20
237.292
  0
VERTEX
  8
MMIC_Label
  10
-459.166
  20
233.587
  0
VERTEX
  8
MMIC_Label
  10
-459.31
  20
233.379
  0
VERTEX
  8
MMIC_Label
  10
-459.532
  20
233.06
  0
VERTEX
  8
MMIC_Label
  10
-461.987
  20
233.06
  0
VERTEX
  8
MMIC_Label
  10
-462.214
  20
233.387
  0
VERTEX
  8
MMIC_Label
  10
-462.394
  20
233.646
  0
VERTEX
  8
MMIC_Label
  10
-462.394
  20
237.278
  0
VERTEX
  8
MMIC_Label
  10
-461.765
  20
238.171
  0
VERTEX
  8
MMIC_Label
  10
-461.765
  20
240.49
  0
VERTEX
  8
MMIC_Label
  10
-462.535
  20
240.49
  0
VERTEX
  8
MMIC_Label
  10
-463.589
  20
239.029
  0
VERTEX
  8
MMIC_Label
  10
-464.634
  20
237.582
  0
VERTEX
  8
MMIC_Label
  10
-464.634
  20
234.063
  0
VERTEX
  8
MMIC_Label
  10
-463.646
  20
232.033
  0
VERTEX
  8
MMIC_Label
  10
-462.941
  20
231.654
  0
VERTEX
  8
MMIC_Label
  10
-462.814
  20
231.586
  0
VERTEX
  8
MMIC_Label
  10
-463.839
  20
231.194
  0
VERTEX
  8
MMIC_Label
  10
-464.503
  20
229.904
  0
VERTEX
  8
MMIC_Label
  10
-465.158
  20
228.626
  0
VERTEX
  8
MMIC_Label
  10
-465.158
  20
224.204
  0
VERTEX
  8
MMIC_Label
  10
-463.956
  20
222.507
  0
VERTEX
  8
MMIC_Label
  10
-463.494
  20
221.85
  0
VERTEX
  8
MMIC_Label
  10
-462.74
  20
220.79
  0
VERTEX
  8
MMIC_Label
  10
-461.643
  20
220.79
  0
VERTEX
  8
MMIC_Label
  10
-461.643
  20
223.079
  0
VERTEX
  8
MMIC_Label
  10
-462.055
  20
223.41
  0
VERTEX
  8
MMIC_Label
  10
-462.403
  20
223.689
  0
VERTEX
  8
MMIC_Label
  10
-463.012
  20
225.439
  0
VERTEX
  8
MMIC_Label
  10
-463.012
  20
228.775
  0
VERTEX
  8
MMIC_Label
  10
-462.583
  20
229.404
  0
VERTEX
  8
MMIC_Label
  10
-461.871
  20
230.454
  0
VERTEX
  8
MMIC_Label
  10
-459.686
  20
230.454
  0
VERTEX
  8
MMIC_Label
  10
-458.944
  20
229.391
  0
VERTEX
  8
MMIC_Label
  10
-458.532
  20
228.798
  0
VERTEX
  8
MMIC_Label
  10
-458.532
  20
224.52
  0
VERTEX
  8
MMIC_Label
  10
-458.922
  20
223.955
  0
VERTEX
  8
MMIC_Label
  10
-459.642
  20
222.918
  0
VERTEX
  8
MMIC_Label
  10
-459.642
  20
220.79
  0
VERTEX
  8
MMIC_Label
  10
-458.77
  20
220.79
  0
VERTEX
  8
MMIC_Label
  10
-457.556
  20
222.498
  0
VERTEX
  8
MMIC_Label
  10
-456.352
  20
224.192
  0
SEQEND
  0
POLYLINE
  8
MMIC_Label
  70
1
  66
1
  0
VERTEX
  8
MMIC_Label
  10
287.91
  20
229.6
  0
VERTEX
  8
MMIC_Label
  10
297.81
  20
246.1
  0
VERTEX
  8
MMIC_Label
  10
287.91
  20
262.6
  0
VERTEX
  8
MMIC_Label
  10
295.17
  20
262.6
  0
VERTEX
  8
MMIC_Label
  10
301.77
  20
251.71
  0
VERTEX
  8
MMIC_Label
  10
308.37
  20
262.6
  0
VERTEX
  8
MMIC_Label
  10
315.3
  20
262.6
  0
VERTEX
  8
MMIC_Label
  10
305.4
  20
246.1
  0
VERTEX
  8
MMIC_Label
  10
315.3
  20
229.6
  0
VERTEX
  8
MMIC_Label
  10
308.37
  20
229.6
  0
VERTEX
  8
MMIC_Label
  10
301.77
  20
240.49
  0
VERTEX
  8
MMIC_Label
  10
295.17
  20
229.6
  0
SEQEND
  0
POLYLINE
  8
MMIC_Label
  70
1
  66
1
  0
VERTEX
  8
MMIC_Label
  10
314.31
  20
303.34
  0
VERTEX
  8
MMIC_Label
  10
313.32
  20
305.32
  0
VERTEX
  8
MMIC_Label
  10
312
  20
307.3
  0
VERTEX
  8
MMIC_Label
  10
310.35
  20
308.62
  0
VERTEX
  8
MMIC_Label
  10
306.39
  20
310.6
  0
VERTEX
  8
MMIC_Label
  10
299.46
  20
310.6
  0
VERTEX
  8
MMIC_Label
  10
297.15
  20
310.27
  0
VERTEX
  8
MMIC_Label
  10
294.84
  20
308.95
  0
VERTEX
  8
MMIC_Label
  10
292.86
  20
307.63
  0
VERTEX
  8
MMIC_Label
  10
291.54
  20
305.98
  0
VERTEX
  8
MMIC_Label
  10
290.22
  20
303.67
  0
VERTEX
  8
MMIC_Label
  10
289.23
  20
301.69
  0
VERTEX
  8
MMIC_Label
  10
288.24
  20
299.05
  0
VERTEX
  8
MMIC_Label
  10
287.91
  20
296.74
  0
VERTEX
  8
MMIC_Label
  10
287.91
  20
291.46
  0
VERTEX
  8
MMIC_Label
  10
288.24
  20
289.15
  0
VERTEX
  8
MMIC_Label
  10
289.23
  20
286.51
  0
VERTEX
  8
MMIC_Label
  10
290.22
  20
284.53
  0
VERTEX
  8
MMIC_Label
  10
291.54
  20
282.22
  0
VERTEX
  8
MMIC_Label
  10
292.86
  20
280.57
  0
VERTEX
  8
MMIC_Label
  10
294.84
  20
279.25
  0
VERTEX
  8
MMIC_Label
  10
297.15
  20
277.93
  0
VERTEX
  8
MMIC_Label
  10
299.46
  20
277.6
  0
VERTEX
  8
MMIC_Label
  10
306.39
  20
277.6
  0
VERTEX
  8
MMIC_Label
  10
308.37
  20
278.26
  0
VERTEX
  8
MMIC_Label
  10
310.35
  20
279.58
  0
VERTEX
  8
MMIC_Label
  10
312
  20
280.9
  0
VERTEX
  8
MMIC_Label
  10
313.32
  20
282.22
  0
VERTEX
  8
MMIC_Label
  10
314.64
  20
284.2
  0
VERTEX
  8
MMIC_Label
  10
315.3
  20
286.18
  0
VERTEX
  8
MMIC_Label
  10
315.3
  20
288.49
  0
VERTEX
  8
MMIC_Label
  10
314.97
  20
290.8
  0
VERTEX
  8
MMIC_Label
  10
314.31
  20
293.11
  0
VERTEX
  8
MMIC_Label
  10
311.67
  20
296.41
  0
VERTEX
  8
MMIC_Label
  10
307.71
  20
298.39
  0
VERTEX
  8
MMIC_Label
  10
305.4
  20
299.05
  0
VERTEX
  8
MMIC_Label
  10
303.42
  20
299.05
  0
VERTEX
  8
MMIC_Label
  10
300.78
  20
298.72
  0
VERTEX
  8
MMIC_Label
  10
298.47
  20
298.06
  0
VERTEX
  8
MMIC_Label
  10
296.49
  20
296.74
  0
VERTEX
  8
MMIC_Label
  10
294.51
  20
295.09
  0
VERTEX
  8
MMIC_Label
  10
294.51
  20
297.07
  0
VERTEX
  8
MMIC_Label
  10
294.84
  20
298.72
  0
VERTEX
  8
MMIC_Label
  10
295.5
  20
300.7
  0
VERTEX
  8
MMIC_Label
  10
297.48
  20
304
  0
VERTEX
  8
MMIC_Label
  10
298.8
  20
304.99
  0
VERTEX
  8
MMIC_Label
  10
300.78
  20
305.98
  0
VERTEX
  8
MMIC_Label
  10
302.76
  20
306.31
  0
VERTEX
  8
MMIC_Label
  10
304.41
  20
305.98
  0
VERTEX
  8
MMIC_Label
  10
307.05
  20
304.66
  0
VERTEX
  8
MMIC_Label
  10
308.37
  20
303.34
  0
SEQEND
  0
POLYLINE
  8
MMIC_Label
  70
1
  66
1
  0
VERTEX
  8
MMIC_Label
  10
194.51
  20
277.6
  0
VERTEX
  8
MMIC_Label
  10
204.41
  20
310.6
  0
VERTEX
  8
MMIC_Label
  10
212
  20
310.6
  0
VERTEX
  8
MMIC_Label
  10
221.9
  20
277.6
  0
VERTEX
  8
MMIC_Label
  10
214.97
  20
277.6
  0
VERTEX
  8
MMIC_Label
  10
213.32
  20
284.2
  0
VERTEX
  8
MMIC_Label
  10
203.42
  20
284.2
  0
VERTEX
  8
MMIC_Label
  10
201.77
  20
277.6
  0
SEQEND
  0
POLYLINE
  8
MMIC_Label
  70
1
  66
1
  0
VERTEX
  8
MMIC_Label
  10
123.91
  20
229.6
  0
VERTEX
  8
MMIC_Label
  10
123.91
  20
262.6
  0
VERTEX
  8
MMIC_Label
  10
140.41
  20
262.6
  0
VERTEX
  8
MMIC_Label
  10
144.37
  20
261.94
  0
VERTEX
  8
MMIC_Label
  10
146.35
  20
260.95
  0
VERTEX
  8
MMIC_Label
  10
148
  20
259.96
  0
VERTEX
  8
MMIC_Label
  10
149.98
  20
256.66
  0
VERTEX
  8
MMIC_Label
  10
150.31
  20
254.35
  0
VERTEX
  8
MMIC_Label
  10
149.65
  20
251.05
  0
VERTEX
  8
MMIC_Label
  10
148.66
  20
249.4
  0
VERTEX
  8
MMIC_Label
  10
147.34
  20
248.08
  0
VERTEX
  8
MMIC_Label
  10
146.02
  20
247.42
  0
VERTEX
  8
MMIC_Label
  10
144.37
  20
246.76
  0
VERTEX
  8
MMIC_Label
  10
146.02
  20
246.1
  0
VERTEX
  8
MMIC_Label
  10
147.67
  20
245.11
  0
VERTEX
  8
MMIC_Label
  10
149.32
  20
243.79
  0
VERTEX
  8
MMIC_Label
  10
151.3
  20
240.49
  0
VERTEX
  8
MMIC_Label
  10
151.3
  20
238.51
  0
VERTEX
  8
MMIC_Label
  10
150.97
  20
236.2
  0
VERTEX
  8
MMIC_Label
  10
150.31
  20
234.22
  0
VERTEX
  8
MMIC_Label
  10
148.99
  20
232.57
  0
VERTEX
  8
MMIC_Label
  10
147.34
  20
231.25
  0
VERTEX
  8
MMIC_Label
  10
145.69
  20
230.26
  0
VERTEX
  8
MMIC_Label
  10
143.71
  20
229.93
  0
VERTEX
  8
MMIC_Label
  10
141.4
  20
229.6
  0
SEQEND
  0
POLYLINE
  8
MMIC_Label
  70
1
  66
1
  0
VERTEX
  8
MMIC_Label
  10
254.7
  20
300.04
  0
VERTEX
  8
MMIC_Label
  10
254.04
  20
302.35
  0
VERTEX
  8
MMIC_Label
  10
253.05
  20
304.66
  0
VERTEX
  8
MMIC_Label
  10
251.73
  20
306.31
  0
VERTEX
  8
MMIC_Label
  10
250.08
  20
307.96
  0
VERTEX
  8
MMIC_Label
  10
248.43
  20
309.28
  0
VERTEX
  8
MMIC_Label
  10
246.12
  20
310.27
  0
VERTEX
  8
MMIC_Label
  10
244.14
  20
310.6
  0
VERTEX
  8
MMIC_Label
  10
238.86
  20
310.6
  0
VERTEX
  8
MMIC_Label
  10
236.55
  20
310.27
  0
VERTEX
  8
MMIC_Label
  10
234.24
  20
308.95
  0
VERTEX
  8
MMIC_Label
  10
232.59
  20
307.63
  0
VERTEX
  8
MMIC_Label
  10
230.94
  20
305.98
  0
VERTEX
  8
MMIC_Label
  10
229.62
  20
303.67
  0
VERTEX
  8
MMIC_Label
  10
228.63
  20
301.69
  0
VERTEX
  8
MMIC_Label
  10
227.97
  20
299.05
  0
VERTEX
  8
MMIC_Label
  10
227.64
  20
296.74
  0
VERTEX
  8
MMIC_Label
  10
227.31
  20
294.1
  0
VERTEX
  8
MMIC_Label
  10
227.64
  20
291.46
  0
VERTEX
  8
MMIC_Label
  10
227.97
  20
289.15
  0
VERTEX
  8
MMIC_Label
  10
228.63
  20
286.51
  0
VERTEX
  8
MMIC_Label
  10
229.62
  20
284.53
  0
VERTEX
  8
MMIC_Label
  10
230.94
  20
282.22
  0
VERTEX
  8
MMIC_Label
  10
232.59
  20
280.57
  0
VERTEX
  8
MMIC_Label
  10
234.24
  20
279.25
  0
VERTEX
  8
MMIC_Label
  10
236.55
  20
277.93
  0
VERTEX
  8
MMIC_Label
  10
238.86
  20
277.6
  0
VERTEX
  8
MMIC_Label
  10
243.48
  20
277.6
  0
VERTEX
  8
MMIC_Label
  10
245.46
  20
277.93
  0
VERTEX
  8
MMIC_Label
  10
248.76
  20
279.91
  0
VERTEX
  8
MMIC_Label
  10
249.75
  20
281.56
  0
VERTEX
  8
MMIC_Label
  10
251.07
  20
277.6
  0
VERTEX
  8
MMIC_Label
  10
254.7
  20
277.6
  0
VERTEX
  8
MMIC_Label
  10
254.7
  20
294.1
  0
VERTEX
  8
MMIC_Label
  10
242.16
  20
294.1
  0
VERTEX
  8
MMIC_Label
  10
242.16
  20
289.15
  0
VERTEX
  8
MMIC_Label
  10
248.1
  20
289.15
  0
VERTEX
  8
MMIC_Label
  10
247.77
  20
287.5
  0
VERTEX
  8
MMIC_Label
  10
247.11
  20
285.85
  0
VERTEX
  8
MMIC_Label
  10
246.12
  20
284.53
  0
VERTEX
  8
MMIC_Label
  10
244.8
  20
283.54
  0
VERTEX
  8
MMIC_Label
  10
243.48
  20
282.88
  0
VERTEX
  8
MMIC_Label
  10
241.5
  20
282.55
  0
VERTEX
  8
MMIC_Label
  10
239.85
  20
282.88
  0
VERTEX
  8
MMIC_Label
  10
238.2
  20
283.54
  0
VERTEX
  8
MMIC_Label
  10
236.88
  20
284.53
  0
VERTEX
  8
MMIC_Label
  10
235.56
  20
286.18
  0
VERTEX
  8
MMIC_Label
  10
234.9
  20
287.83
  0
VERTEX
  8
MMIC_Label
  10
234.24
  20
289.81
  0
VERTEX
  8
MMIC_Label
  10
233.91
  20
291.79
  0
VERTEX
  8
MMIC_Label
  10
233.91
  20
296.41
  0
VERTEX
  8
MMIC_Label
  10
234.24
  20
298.39
  0
VERTEX
  8
MMIC_Label
  10
234.9
  20
300.37
  0
VERTEX
  8
MMIC_Label
  10
235.56
  20
302.02
  0
VERTEX
  8
MMIC_Label
  10
236.88
  20
303.67
  0
VERTEX
  8
MMIC_Label
  10
238.2
  20
304.66
  0
VERTEX
  8
MMIC_Label
  10
239.85
  20
305.32
  0
VERTEX
  8
MMIC_Label
  10
241.5
  20
305.65
  0
VERTEX
  8
MMIC_Label
  10
243.48
  20
305.32
  0
VERTEX
  8
MMIC_Label
  10
245.13
  20
304.33
  0
VERTEX
  8
MMIC_Label
  10
246.45
  20
303.34
  0
VERTEX
  8
MMIC_Label
  10
247.44
  20
301.69
  0
VERTEX
  8
MMIC_Label
  10
248.1
  20
300.04
  0
SEQEND
  0
POLYLINE
  8
MMIC_Label
  70
1
  66
1
  0
VERTEX
  8
MMIC_Label
  10
130.51
  20
249.4
  0
VERTEX
  8
MMIC_Label
  10
130.51
  20
256.99
  0
VERTEX
  8
MMIC_Label
  10
141.07
  20
256.99
  0
VERTEX
  8
MMIC_Label
  10
143.05
  20
255.67
  0
VERTEX
  8
MMIC_Label
  10
143.38
  20
254.35
  0
VERTEX
  8
MMIC_Label
  10
143.71
  20
253.36
  0
VERTEX
  8
MMIC_Label
  10
143.38
  20
252.04
  0
VERTEX
  8
MMIC_Label
  10
143.05
  20
251.05
  0
VERTEX
  8
MMIC_Label
  10
142.06
  20
250.06
  0
VERTEX
  8
MMIC_Label
  10
141.07
  20
249.73
  0
VERTEX
  8
MMIC_Label
  10
139.75
  20
249.4
  0
SEQEND
  0
POLYLINE
  8
MMIC_Label
  70
1
  66
1
  0
VERTEX
  8
MMIC_Label
  10
-506.7
  20
246.2
  0
VERTEX
  8
MMIC_Label
  10
-506.7
  20
310.6
  0
VERTEX
  8
MMIC_Label
  10
-511.7
  20
310.6
  0
VERTEX
  8
MMIC_Label
  10
-511.7
  20
246.2
  0
SEQEND
  0
POLYLINE
  8
MMIC_Label
  70
1
  66
1
  0
VERTEX
  8
MMIC_Label
  10
-513.418
  20
223.141
  0
VERTEX
  8
MMIC_Label
  10
-519.983
  20
223.141
  0
VERTEX
  8
MMIC_Label
  10
-519.767
  20
223.662
  0
VERTEX
  8
MMIC_Label
  10
-518.932
  20
224.962
  0
VERTEX
  8
MMIC_Label
  10
-517.442
  20
226.809
  0
VERTEX
  8
MMIC_Label
  10
-515.653
  20
229.043
  0
VERTEX
  8
MMIC_Label
  10
-514.881
  20
230.327
  0
VERTEX
  8
MMIC_Label
  10
-514.107
  20
231.615
  0
VERTEX
  8
MMIC_Label
  10
-513.772
  20
232.783
  0
VERTEX
  8
MMIC_Label
  10
-513.436
  20
233.95
  0
VERTEX
  8
MMIC_Label
  10
-513.436
  20
237.543
  0
VERTEX
  8
MMIC_Label
  10
-514.586
  20
239.158
  0
VERTEX
  8
MMIC_Label
  10
-515.748
  20
240.79
  0
VERTEX
  8
MMIC_Label
  10
-519.713
  20
240.79
  0
VERTEX
  8
MMIC_Label
  10
-522.044
  20
237.779
  0
VERTEX
  8
MMIC_Label
  10
-522.225
  20
234.844
  0
VERTEX
  8
MMIC_Label
  10
-520.334
  20
234.557
  0
VERTEX
  8
MMIC_Label
  10
-520.326
  20
234.564
  0
VERTEX
  8
MMIC_Label
  10
-520.318
  20
234.57
  0
VERTEX
  8
MMIC_Label
  10
-520.309
  20
236.515
  0
VERTEX
  8
MMIC_Label
  10
-519.609
  20
237.55
  0
VERTEX
  8
MMIC_Label
  10
-519.218
  20
238.126
  0
VERTEX
  8
MMIC_Label
  10
-516.387
  20
238.126
  0
VERTEX
  8
MMIC_Label
  10
-515.678
  20
237.12
  0
VERTEX
  8
MMIC_Label
  10
-515.678
  20
233.168
  0
VERTEX
  8
MMIC_Label
  10
-516.868
  20
230.772
  0
VERTEX
  8
MMIC_Label
  10
-519.059
  20
228.118
  0
VERTEX
  8
MMIC_Label
  10
-519.06
  20
228.118
  0
VERTEX
  8
MMIC_Label
  10
-520.482
  20
226.399
  0
VERTEX
  8
MMIC_Label
  10
-521.237
  20
225.088
  0
VERTEX
  8
MMIC_Label
  10
-521.994
  20
223.771
  0
VERTEX
  8
MMIC_Label
  10
-522.336
  20
222.415
  0
VERTEX
  8
MMIC_Label
  10
-522.552
  20
221.585
  0
VERTEX
  8
MMIC_Label
  10
-522.531
  20
220.59
  0
VERTEX
  8
MMIC_Label
  10
-513.418
  20
220.59
  0
SEQEND
  0
POLYLINE
  8
MMIC_Label
  70
1
  66
1
  0
VERTEX
  8
MMIC_Label
  10
-466.528
  20
220.69
  0
VERTEX
  8
MMIC_Label
  10
-470.707
  20
228.326
  0
VERTEX
  8
MMIC_Label
  10
-466.824
  20
235.119
  0
VERTEX
  8
MMIC_Label
  10
-469.649
  20
235.119
  0
VERTEX
  8
MMIC_Label
  10
-471.542
  20
231.709
  0
VERTEX
  8
MMIC_Label
  10
-471.934
  20
231.016
  0
VERTEX
  8
MMIC_Label
  10
-472.399
  20
230.119
  0
VERTEX
  8
MMIC_Label
  10
-472.696
  20
230.772
  0
VERTEX
  8
MMIC_Label
  10
-473.182
  20
231.736
  0
VERTEX
  8
MMIC_Label
  10
-474.907
  20
235.119
  0
VERTEX
  8
MMIC_Label
  10
-477.837
  20
235.119
  0
VERTEX
  8
MMIC_Label
  10
-474.039
  20
228.19
  0
VERTEX
  8
MMIC_Label
  10
-478.144
  20
220.69
  0
VERTEX
  8
MMIC_Label
  10
-475.288
  20
220.69
  0
VERTEX
  8
MMIC_Label
  10
-472.336
  20
226.383
  0
VERTEX
  8
MMIC_Label
  10
-471.722
  20
225.174
  0
VERTEX
  8
MMIC_Label
  10
-469.416
  20
220.69
  0
SEQEND
  0
POLYLINE
  8
MMIC_Label
  70
1
  66
1
  0
VERTEX
  8
MMIC_Label
  10
58.31
  20
229.6
  0
VERTEX
  8
MMIC_Label
  10
68.21
  20
262.6
  0
VERTEX
  8
MMIC_Label
  10
75.8
  20
262.6
  0
VERTEX
  8
MMIC_Label
  10
85.7
  20
229.6
  0
VERTEX
  8
MMIC_Label
  10
78.77
  20
229.6
  0
VERTEX
  8
MMIC_Label
  10
77.12
  20
236.2
  0
VERTEX
  8
MMIC_Label
  10
67.22
  20
236.2
  0
VERTEX
  8
MMIC_Label
  10
65.57
  20
229.6
  0
SEQEND
  0
POLYLINE
  8
MMIC_Label
  70
1
  66
1
  0
VERTEX
  8
MMIC_Label
  10
-513.418
  20
223.141
  0
VERTEX
  8
MMIC_Label
  10
-519.983
  20
223.141
  0
VERTEX
  8
MMIC_Label
  10
-519.767
  20
223.662
  0
VERTEX
  8
MMIC_Label
  10
-518.932
  20
224.962
  0
VERTEX
  8
MMIC_Label
  10
-517.442
  20
226.809
  0
VERTEX
  8
MMIC_Label
  10
-515.653
  20
229.043
  0
VERTEX
  8
MMIC_Label
  10
-514.881
  20
230.327
  0
VERTEX
  8
MMIC_Label
  10
-514.107
  20
231.615
  0
VERTEX
  8
MMIC_Label
  10
-513.772
  20
232.783
  0
VERTEX
  8
MMIC_Label
  10
-513.436
  20
233.95
  0
VERTEX
  8
MMIC_Label
  10
-513.436
  20
237.543
  0
VERTEX
  8
MMIC_Label
  10
-514.586
  20
239.158
  0
VERTEX
  8
MMIC_Label
  10
-515.748
  20
240.79
  0
VERTEX
  8
MMIC_Label
  10
-519.713
  20
240.79
  0
VERTEX
  8
MMIC_Label
  10
-522.044
  20
237.779
  0
VERTEX
  8
MMIC_Label
  10
-522.225
  20
234.844
  0
VERTEX
  8
MMIC_Label
  10
-520.334
  20
234.557
  0
VERTEX
  8
MMIC_Label
  10
-520.326
  20
234.564
  0
VERTEX
  8
MMIC_Label
  10
-520.318
  20
234.57
  0
VERTEX
  8
MMIC_Label
  10
-520.309
  20
236.515
  0
VERTEX
  8
MMIC_Label
  10
-519.609
  20
237.55
  0
VERTEX
  8
MMIC_Label
  10
-519.218
  20
238.126
  0
VERTEX
  8
MMIC_Label
  10
-516.387
  20
238.126
  0
VERTEX
  8
MMIC_Label
  10
-515.678
  20
237.12
  0
VERTEX
  8
MMIC_Label
  10
-515.678
  20
233.168
  0
VERTEX
  8
MMIC_Label
  10
-516.868
  20
230.772
  0
VERTEX
  8
MMIC_Label
  10
-519.059
  20
228.118
  0
VERTEX
  8
MMIC_Label
  10
-519.06
  20
228.118
  0
VERTEX
  8
MMIC_Label
  10
-520.482
  20
226.399
  0
VERTEX
  8
MMIC_Label
  10
-521.237
  20
225.088
  0
VERTEX
  8
MMIC_Label
  10
-521.994
  20
223.771
  0
VERTEX
  8
MMIC_Label
  10
-522.336
  20
222.415
  0
VERTEX
  8
MMIC_Label
  10
-522.552
  20
221.585
  0
VERTEX
  8
MMIC_Label
  10
-522.531
  20
220.59
  0
VERTEX
  8
MMIC_Label
  10
-513.418
  20
220.59
  0
SEQEND
  0
POLYLINE
  8
MMIC_Label
  70
1
  66
1
  0
VERTEX
  8
MMIC_Label
  10
-524.94
  20
220.69
  0
VERTEX
  8
MMIC_Label
  10
-529.119
  20
228.326
  0
VERTEX
  8
MMIC_Label
  10
-525.236
  20
235.119
  0
VERTEX
  8
MMIC_Label
  10
-528.061
  20
235.119
  0
VERTEX
  8
MMIC_Label
  10
-529.954
  20
231.709
  0
VERTEX
  8
MMIC_Label
  10
-530.346
  20
231.016
  0
VERTEX
  8
MMIC_Label
  10
-530.811
  20
230.119
  0
VERTEX
  8
MMIC_Label
  10
-531.108
  20
230.772
  0
VERTEX
  8
MMIC_Label
  10
-531.594
  20
231.736
  0
VERTEX
  8
MMIC_Label
  10
-533.319
  20
235.119
  0
VERTEX
  8
MMIC_Label
  10
-536.249
  20
235.119
  0
VERTEX
  8
MMIC_Label
  10
-532.451
  20
228.19
  0
VERTEX
  8
MMIC_Label
  10
-536.556
  20
220.69
  0
VERTEX
  8
MMIC_Label
  10
-533.7
  20
220.69
  0
VERTEX
  8
MMIC_Label
  10
-530.748
  20
226.383
  0
VERTEX
  8
MMIC_Label
  10
-530.134
  20
225.174
  0
VERTEX
  8
MMIC_Label
  10
-527.828
  20
220.69
  0
SEQEND
  0
POLYLINE
  8
MMIC_Label
  70
1
  66
1
  0
VERTEX
  8
MMIC_Label
  10
194.51
  20
277.6
  0
VERTEX
  8
MMIC_Label
  10
204.41
  20
310.6
  0
VERTEX
  8
MMIC_Label
  10
212
  20
310.6
  0
VERTEX
  8
MMIC_Label
  10
221.9
  20
277.6
  0
VERTEX
  8
MMIC_Label
  10
214.97
  20
277.6
  0
VERTEX
  8
MMIC_Label
  10
213.32
  20
284.2
  0
VERTEX
  8
MMIC_Label
  10
203.42
  20
284.2
  0
VERTEX
  8
MMIC_Label
  10
201.77
  20
277.6
  0
SEQEND
  0
POLYLINE
  8
MMIC_Label
  70
1
  66
1
  0
VERTEX
  8
MMIC_Label
  10
-416.7
  20
281.7
  0
VERTEX
  8
MMIC_Label
  10
-601.7
  20
281.7
  0
VERTEX
  8
MMIC_Label
  10
-601.7
  20
276.7
  0
VERTEX
  8
MMIC_Label
  10
-416.7
  20
276.7
  0
SEQEND
  0
POLYLINE
  8
MMIC_Label
  70
1
  66
1
  0
VERTEX
  8
MMIC_Label
  10
-501.7
  20
271.3
  0
VERTEX
  8
MMIC_Label
  10
-486.7
  20
271.3
  0
VERTEX
  8
MMIC_Label
  10
-486.7
  20
256.3
  0
VERTEX
  8
MMIC_Label
  10
-501.7
  20
256.3
  0
SEQEND
  0
POLYLINE
  8
MMIC_Label
  70
1
  66
1
  0
VERTEX
  8
MMIC_Label
  10
-439.828
  20
220.69
  0
VERTEX
  8
MMIC_Label
  10
-444.007
  20
228.326
  0
VERTEX
  8
MMIC_Label
  10
-440.124
  20
235.119
  0
VERTEX
  8
MMIC_Label
  10
-442.949
  20
235.119
  0
VERTEX
  8
MMIC_Label
  10
-444.842
  20
231.709
  0
VERTEX
  8
MMIC_Label
  10
-445.234
  20
231.016
  0
VERTEX
  8
MMIC_Label
  10
-445.699
  20
230.119
  0
VERTEX
  8
MMIC_Label
  10
-445.996
  20
230.772
  0
VERTEX
  8
MMIC_Label
  10
-446.482
  20
231.736
  0
VERTEX
  8
MMIC_Label
  10
-448.207
  20
235.119
  0
VERTEX
  8
MMIC_Label
  10
-451.137
  20
235.119
  0
VERTEX
  8
MMIC_Label
  10
-447.339
  20
228.19
  0
VERTEX
  8
MMIC_Label
  10
-451.444
  20
220.69
  0
VERTEX
  8
MMIC_Label
  10
-448.588
  20
220.69
  0
VERTEX
  8
MMIC_Label
  10
-445.636
  20
226.383
  0
VERTEX
  8
MMIC_Label
  10
-445.022
  20
225.174
  0
VERTEX
  8
MMIC_Label
  10
-442.716
  20
220.69
  0
SEQEND
  0
POLYLINE
  8
MMIC_Label
  70
1
  66
1
  0
VERTEX
  8
MMIC_Label
  10
204.41
  20
289.15
  0
VERTEX
  8
MMIC_Label
  10
208.37
  20
303.34
  0
VERTEX
  8
MMIC_Label
  10
212
  20
289.15
  0
SEQEND
  0
POLYLINE
  8
MMIC_Label
  70
1
  66
1
  0
VERTEX
  8
MMIC_Label
  10
-501.7
  20
301.3
  0
VERTEX
  8
MMIC_Label
  10
-486.7
  20
301.3
  0
VERTEX
  8
MMIC_Label
  10
-486.7
  20
286.3
  0
VERTEX
  8
MMIC_Label
  10
-501.7
  20
286.3
  0
SEQEND
  0
POLYLINE
  8
MMIC_Via
  70
1
  66
1
  0
VERTEX
  8
MMIC_Via
  10
235.3
  20
-309.3
  0
VERTEX
  8
MMIC_Via
  10
235.372
  20
-310.77
  0
VERTEX
  8
MMIC_Via
  10
235.588
  20
-312.226
  0
VERTEX
  8
MMIC_Via
  10
235.946
  20
-313.654
  0
VERTEX
  8
MMIC_Via
  10
236.442
  20
-315.04
  0
VERTEX
  8
MMIC_Via
  10
237.071
  20
-316.371
  0
VERTEX
  8
MMIC_Via
  10
237.828
  20
-317.634
  0
VERTEX
  8
MMIC_Via
  10
238.705
  20
-318.816
  0
VERTEX
  8
MMIC_Via
  10
239.693
  20
-319.907
  0
VERTEX
  8
MMIC_Via
  10
240.784
  20
-320.895
  0
VERTEX
  8
MMIC_Via
  10
241.966
  20
-321.772
  0
VERTEX
  8
MMIC_Via
  10
243.229
  20
-322.529
  0
VERTEX
  8
MMIC_Via
  10
244.56
  20
-323.158
  0
VERTEX
  8
MMIC_Via
  10
245.946
  20
-323.654
  0
VERTEX
  8
MMIC_Via
  10
247.374
  20
-324.012
  0
VERTEX
  8
MMIC_Via
  10
248.83
  20
-324.228
  0
VERTEX
  8
MMIC_Via
  10
250.3
  20
-324.3
  0
VERTEX
  8
MMIC_Via
  10
280.3
  20
-324.3
  0
VERTEX
  8
MMIC_Via
  10
281.77
  20
-324.228
  0
VERTEX
  8
MMIC_Via
  10
283.226
  20
-324.012
  0
VERTEX
  8
MMIC_Via
  10
284.654
  20
-323.654
  0
VERTEX
  8
MMIC_Via
  10
286.04
  20
-323.158
  0
VERTEX
  8
MMIC_Via
  10
287.371
  20
-322.529
  0
VERTEX
  8
MMIC_Via
  10
288.634
  20
-321.772
  0
VERTEX
  8
MMIC_Via
  10
289.816
  20
-320.895
  0
VERTEX
  8
MMIC_Via
  10
290.907
  20
-319.907
  0
VERTEX
  8
MMIC_Via
  10
291.895
  20
-318.816
  0
VERTEX
  8
MMIC_Via
  10
292.772
  20
-317.634
  0
VERTEX
  8
MMIC_Via
  10
293.529
  20
-316.371
  0
VERTEX
  8
MMIC_Via
  10
294.158
  20
-315.04
  0
VERTEX
  8
MMIC_Via
  10
294.654
  20
-313.654
  0
VERTEX
  8
MMIC_Via
  10
295.012
  20
-312.226
  0
VERTEX
  8
MMIC_Via
  10
295.228
  20
-310.77
  0
VERTEX
  8
MMIC_Via
  10
295.3
  20
-309.3
  0
VERTEX
  8
MMIC_Via
  10
295.228
  20
-307.83
  0
VERTEX
  8
MMIC_Via
  10
295.012
  20
-306.374
  0
VERTEX
  8
MMIC_Via
  10
294.654
  20
-304.946
  0
VERTEX
  8
MMIC_Via
  10
294.158
  20
-303.56
  0
VERTEX
  8
MMIC_Via
  10
293.529
  20
-302.229
  0
VERTEX
  8
MMIC_Via
  10
292.772
  20
-300.966
  0
VERTEX
  8
MMIC_Via
  10
291.895
  20
-299.784
  0
VERTEX
  8
MMIC_Via
  10
290.907
  20
-298.693
  0
VERTEX
  8
MMIC_Via
  10
289.816
  20
-297.705
  0
VERTEX
  8
MMIC_Via
  10
288.634
  20
-296.828
  0
VERTEX
  8
MMIC_Via
  10
287.371
  20
-296.071
  0
VERTEX
  8
MMIC_Via
  10
286.04
  20
-295.442
  0
VERTEX
  8
MMIC_Via
  10
284.654
  20
-294.946
  0
VERTEX
  8
MMIC_Via
  10
283.226
  20
-294.588
  0
VERTEX
  8
MMIC_Via
  10
281.77
  20
-294.372
  0
VERTEX
  8
MMIC_Via
  10
280.3
  20
-294.3
  0
VERTEX
  8
MMIC_Via
  10
250.3
  20
-294.3
  0
VERTEX
  8
MMIC_Via
  10
248.83
  20
-294.372
  0
VERTEX
  8
MMIC_Via
  10
247.374
  20
-294.588
  0
VERTEX
  8
MMIC_Via
  10
245.946
  20
-294.946
  0
VERTEX
  8
MMIC_Via
  10
244.56
  20
-295.442
  0
VERTEX
  8
MMIC_Via
  10
243.229
  20
-296.071
  0
VERTEX
  8
MMIC_Via
  10
241.966
  20
-296.828
  0
VERTEX
  8
MMIC_Via
  10
240.784
  20
-297.705
  0
VERTEX
  8
MMIC_Via
  10
239.693
  20
-298.693
  0
VERTEX
  8
MMIC_Via
  10
238.705
  20
-299.784
  0
VERTEX
  8
MMIC_Via
  10
237.828
  20
-300.966
  0
VERTEX
  8
MMIC_Via
  10
237.071
  20
-302.229
  0
VERTEX
  8
MMIC_Via
  10
236.442
  20
-303.56
  0
VERTEX
  8
MMIC_Via
  10
235.946
  20
-304.946
  0
VERTEX
  8
MMIC_Via
  10
235.588
  20
-306.374
  0
VERTEX
  8
MMIC_Via
  10
235.372
  20
-307.83
  0
SEQEND
  0
POLYLINE
  8
MMIC_Via
  70
1
  66
1
  0
VERTEX
  8
MMIC_Via
  10
-574.7
  20
172.3
  0
VERTEX
  8
MMIC_Via
  10
-574.628
  20
170.83
  0
VERTEX
  8
MMIC_Via
  10
-574.412
  20
169.374
  0
VERTEX
  8
MMIC_Via
  10
-574.054
  20
167.946
  0
VERTEX
  8
MMIC_Via
  10
-573.558
  20
166.56
  0
VERTEX
  8
MMIC_Via
  10
-572.929
  20
165.229
  0
VERTEX
  8
MMIC_Via
  10
-572.172
  20
163.966
  0
VERTEX
  8
MMIC_Via
  10
-571.295
  20
162.784
  0
VERTEX
  8
MMIC_Via
  10
-570.307
  20
161.693
  0
VERTEX
  8
MMIC_Via
  10
-569.216
  20
160.705
  0
VERTEX
  8
MMIC_Via
  10
-568.034
  20
159.828
  0
VERTEX
  8
MMIC_Via
  10
-566.771
  20
159.071
  0
VERTEX
  8
MMIC_Via
  10
-565.44
  20
158.442
  0
VERTEX
  8
MMIC_Via
  10
-564.054
  20
157.946
  0
VERTEX
  8
MMIC_Via
  10
-562.626
  20
157.588
  0
VERTEX
  8
MMIC_Via
  10
-561.17
  20
157.372
  0
VERTEX
  8
MMIC_Via
  10
-559.7
  20
157.3
  0
VERTEX
  8
MMIC_Via
  10
-529.7
  20
157.3
  0
VERTEX
  8
MMIC_Via
  10
-528.23
  20
157.372
  0
VERTEX
  8
MMIC_Via
  10
-526.774
  20
157.588
  0
VERTEX
  8
MMIC_Via
  10
-525.346
  20
157.946
  0
VERTEX
  8
MMIC_Via
  10
-523.96
  20
158.442
  0
VERTEX
  8
MMIC_Via
  10
-522.629
  20
159.071
  0
VERTEX
  8
MMIC_Via
  10
-521.366
  20
159.828
  0
VERTEX
  8
MMIC_Via
  10
-520.184
  20
160.705
  0
VERTEX
  8
MMIC_Via
  10
-519.093
  20
161.693
  0
VERTEX
  8
MMIC_Via
  10
-518.105
  20
162.784
  0
VERTEX
  8
MMIC_Via
  10
-517.228
  20
163.966
  0
VERTEX
  8
MMIC_Via
  10
-516.471
  20
165.229
  0
VERTEX
  8
MMIC_Via
  10
-515.842
  20
166.56
  0
VERTEX
  8
MMIC_Via
  10
-515.346
  20
167.946
  0
VERTEX
  8
MMIC_Via
  10
-514.988
  20
169.374
  0
VERTEX
  8
MMIC_Via
  10
-514.772
  20
170.83
  0
VERTEX
  8
MMIC_Via
  10
-514.7
  20
172.3
  0
VERTEX
  8
MMIC_Via
  10
-514.772
  20
173.77
  0
VERTEX
  8
MMIC_Via
  10
-514.988
  20
175.226
  0
VERTEX
  8
MMIC_Via
  10
-515.346
  20
176.654
  0
VERTEX
  8
MMIC_Via
  10
-515.842
  20
178.04
  0
VERTEX
  8
MMIC_Via
  10
-516.471
  20
179.371
  0
VERTEX
  8
MMIC_Via
  10
-517.228
  20
180.634
  0
VERTEX
  8
MMIC_Via
  10
-518.105
  20
181.816
  0
VERTEX
  8
MMIC_Via
  10
-519.093
  20
182.907
  0
VERTEX
  8
MMIC_Via
  10
-520.184
  20
183.895
  0
VERTEX
  8
MMIC_Via
  10
-521.366
  20
184.772
  0
VERTEX
  8
MMIC_Via
  10
-522.629
  20
185.529
  0
VERTEX
  8
MMIC_Via
  10
-523.96
  20
186.158
  0
VERTEX
  8
MMIC_Via
  10
-525.346
  20
186.654
  0
VERTEX
  8
MMIC_Via
  10
-526.774
  20
187.012
  0
VERTEX
  8
MMIC_Via
  10
-528.23
  20
187.228
  0
VERTEX
  8
MMIC_Via
  10
-529.7
  20
187.3
  0
VERTEX
  8
MMIC_Via
  10
-559.7
  20
187.3
  0
VERTEX
  8
MMIC_Via
  10
-561.17
  20
187.228
  0
VERTEX
  8
MMIC_Via
  10
-562.626
  20
187.012
  0
VERTEX
  8
MMIC_Via
  10
-564.054
  20
186.654
  0
VERTEX
  8
MMIC_Via
  10
-565.44
  20
186.158
  0
VERTEX
  8
MMIC_Via
  10
-566.771
  20
185.529
  0
VERTEX
  8
MMIC_Via
  10
-568.034
  20
184.772
  0
VERTEX
  8
MMIC_Via
  10
-569.216
  20
183.895
  0
VERTEX
  8
MMIC_Via
  10
-570.307
  20
182.907
  0
VERTEX
  8
MMIC_Via
  10
-571.295
  20
181.816
  0
VERTEX
  8
MMIC_Via
  10
-572.172
  20
180.634
  0
VERTEX
  8
MMIC_Via
  10
-572.929
  20
179.371
  0
VERTEX
  8
MMIC_Via
  10
-573.558
  20
178.04
  0
VERTEX
  8
MMIC_Via
  10
-574.054
  20
176.654
  0
VERTEX
  8
MMIC_Via
  10
-574.412
  20
175.226
  0
VERTEX
  8
MMIC_Via
  10
-574.628
  20
173.77
  0
SEQEND
  0
POLYLINE
  8
MMIC_Via
  70
1
  66
1
  0
VERTEX
  8
MMIC_Via
  10
-574.7
  20
-309.3
  0
VERTEX
  8
MMIC_Via
  10
-574.628
  20
-310.77
  0
VERTEX
  8
MMIC_Via
  10
-574.412
  20
-312.226
  0
VERTEX
  8
MMIC_Via
  10
-574.054
  20
-313.654
  0
VERTEX
  8
MMIC_Via
  10
-573.558
  20
-315.04
  0
VERTEX
  8
MMIC_Via
  10
-572.929
  20
-316.371
  0
VERTEX
  8
MMIC_Via
  10
-572.172
  20
-317.634
  0
VERTEX
  8
MMIC_Via
  10
-571.295
  20
-318.816
  0
VERTEX
  8
MMIC_Via
  10
-570.307
  20
-319.907
  0
VERTEX
  8
MMIC_Via
  10
-569.216
  20
-320.895
  0
VERTEX
  8
MMIC_Via
  10
-568.034
  20
-321.772
  0
VERTEX
  8
MMIC_Via
  10
-566.771
  20
-322.529
  0
VERTEX
  8
MMIC_Via
  10
-565.44
  20
-323.158
  0
VERTEX
  8
MMIC_Via
  10
-564.054
  20
-323.654
  0
VERTEX
  8
MMIC_Via
  10
-562.626
  20
-324.012
  0
VERTEX
  8
MMIC_Via
  10
-561.17
  20
-324.228
  0
VERTEX
  8
MMIC_Via
  10
-559.7
  20
-324.3
  0
VERTEX
  8
MMIC_Via
  10
-529.7
  20
-324.3
  0
VERTEX
  8
MMIC_Via
  10
-528.23
  20
-324.228
  0
VERTEX
  8
MMIC_Via
  10
-526.774
  20
-324.012
  0
VERTEX
  8
MMIC_Via
  10
-525.346
  20
-323.654
  0
VERTEX
  8
MMIC_Via
  10
-523.96
  20
-323.158
  0
VERTEX
  8
MMIC_Via
  10
-522.629
  20
-322.529
  0
VERTEX
  8
MMIC_Via
  10
-521.366
  20
-321.772
  0
VERTEX
  8
MMIC_Via
  10
-520.184
  20
-320.895
  0
VERTEX
  8
MMIC_Via
  10
-519.093
  20
-319.907
  0
VERTEX
  8
MMIC_Via
  10
-518.105
  20
-318.816
  0
VERTEX
  8
MMIC_Via
  10
-517.228
  20
-317.634
  0
VERTEX
  8
MMIC_Via
  10
-516.471
  20
-316.371
  0
VERTEX
  8
MMIC_Via
  10
-515.842
  20
-315.04
  0
VERTEX
  8
MMIC_Via
  10
-515.346
  20
-313.654
  0
VERTEX
  8
MMIC_Via
  10
-514.988
  20
-312.226
  0
VERTEX
  8
MMIC_Via
  10
-514.772
  20
-310.77
  0
VERTEX
  8
MMIC_Via
  10
-514.7
  20
-309.3
  0
VERTEX
  8
MMIC_Via
  10
-514.772
  20
-307.83
  0
VERTEX
  8
MMIC_Via
  10
-514.988
  20
-306.374
  0
VERTEX
  8
MMIC_Via
  10
-515.346
  20
-304.946
  0
VERTEX
  8
MMIC_Via
  10
-515.842
  20
-303.56
  0
VERTEX
  8
MMIC_Via
  10
-516.471
  20
-302.229
  0
VERTEX
  8
MMIC_Via
  10
-517.228
  20
-300.966
  0
VERTEX
  8
MMIC_Via
  10
-518.105
  20
-299.784
  0
VERTEX
  8
MMIC_Via
  10
-519.093
  20
-298.693
  0
VERTEX
  8
MMIC_Via
  10
-520.184
  20
-297.705
  0
VERTEX
  8
MMIC_Via
  10
-521.366
  20
-296.828
  0
VERTEX
  8
MMIC_Via
  10
-522.629
  20
-296.071
  0
VERTEX
  8
MMIC_Via
  10
-523.96
  20
-295.442
  0
VERTEX
  8
MMIC_Via
  10
-525.346
  20
-294.946
  0
VERTEX
  8
MMIC_Via
  10
-526.774
  20
-294.588
  0
VERTEX
  8
MMIC_Via
  10
-528.23
  20
-294.372
  0
VERTEX
  8
MMIC_Via
  10
-529.7
  20
-294.3
  0
VERTEX
  8
MMIC_Via
  10
-559.7
  20
-294.3
  0
VERTEX
  8
MMIC_Via
  10
-561.17
  20
-294.372
  0
VERTEX
  8
MMIC_Via
  10
-562.626
  20
-294.588
  0
VERTEX
  8
MMIC_Via
  10
-564.054
  20
-294.946
  0
VERTEX
  8
MMIC_Via
  10
-565.44
  20
-295.442
  0
VERTEX
  8
MMIC_Via
  10
-566.771
  20
-296.071
  0
VERTEX
  8
MMIC_Via
  10
-568.034
  20
-296.828
  0
VERTEX
  8
MMIC_Via
  10
-569.216
  20
-297.705
  0
VERTEX
  8
MMIC_Via
  10
-570.307
  20
-298.693
  0
VERTEX
  8
MMIC_Via
  10
-571.295
  20
-299.784
  0
VERTEX
  8
MMIC_Via
  10
-572.172
  20
-300.966
  0
VERTEX
  8
MMIC_Via
  10
-572.929
  20
-302.229
  0
VERTEX
  8
MMIC_Via
  10
-573.558
  20
-303.56
  0
VERTEX
  8
MMIC_Via
  10
-574.054
  20
-304.946
  0
VERTEX
  8
MMIC_Via
  10
-574.412
  20
-306.374
  0
VERTEX
  8
MMIC_Via
  10
-574.628
  20
-307.83
  0
SEQEND
  0
POLYLINE
  8
MMIC_Via
  70
1
  66
1
  0
VERTEX
  8
MMIC_Via
  10
235.3
  20
172.3
  0
VERTEX
  8
MMIC_Via
  10
235.372
  20
170.83
  0
VERTEX
  8
MMIC_Via
  10
235.588
  20
169.374
  0
VERTEX
  8
MMIC_Via
  10
235.946
  20
167.946
  0
VERTEX
  8
MMIC_Via
  10
236.442
  20
166.56
  0
VERTEX
  8
MMIC_Via
  10
237.071
  20
165.229
  0
VERTEX
  8
MMIC_Via
  10
237.828
  20
163.966
  0
VERTEX
  8
MMIC_Via
  10
238.705
  20
162.784
  0
VERTEX
  8
MMIC_Via
  10
239.693
  20
161.693
  0
VERTEX
  8
MMIC_Via
  10
240.784
  20
160.705
  0
VERTEX
  8
MMIC_Via
  10
241.966
  20
159.828
  0
VERTEX
  8
MMIC_Via
  10
243.229
  20
159.071
  0
VERTEX
  8
MMIC_Via
  10
244.56
  20
158.442
  0
VERTEX
  8
MMIC_Via
  10
245.946
  20
157.946
  0
VERTEX
  8
MMIC_Via
  10
247.374
  20
157.588
  0
VERTEX
  8
MMIC_Via
  10
248.83
  20
157.372
  0
VERTEX
  8
MMIC_Via
  10
250.3
  20
157.3
  0
VERTEX
  8
MMIC_Via
  10
280.3
  20
157.3
  0
VERTEX
  8
MMIC_Via
  10
281.77
  20
157.372
  0
VERTEX
  8
MMIC_Via
  10
283.226
  20
157.588
  0
VERTEX
  8
MMIC_Via
  10
284.654
  20
157.946
  0
VERTEX
  8
MMIC_Via
  10
286.04
  20
158.442
  0
VERTEX
  8
MMIC_Via
  10
287.371
  20
159.071
  0
VERTEX
  8
MMIC_Via
  10
288.634
  20
159.828
  0
VERTEX
  8
MMIC_Via
  10
289.816
  20
160.705
  0
VERTEX
  8
MMIC_Via
  10
290.907
  20
161.693
  0
VERTEX
  8
MMIC_Via
  10
291.895
  20
162.784
  0
VERTEX
  8
MMIC_Via
  10
292.772
  20
163.966
  0
VERTEX
  8
MMIC_Via
  10
293.529
  20
165.229
  0
VERTEX
  8
MMIC_Via
  10
294.158
  20
166.56
  0
VERTEX
  8
MMIC_Via
  10
294.654
  20
167.946
  0
VERTEX
  8
MMIC_Via
  10
295.012
  20
169.374
  0
VERTEX
  8
MMIC_Via
  10
295.228
  20
170.83
  0
VERTEX
  8
MMIC_Via
  10
295.3
  20
172.3
  0
VERTEX
  8
MMIC_Via
  10
295.228
  20
173.77
  0
VERTEX
  8
MMIC_Via
  10
295.012
  20
175.226
  0
VERTEX
  8
MMIC_Via
  10
294.654
  20
176.654
  0
VERTEX
  8
MMIC_Via
  10
294.158
  20
178.04
  0
VERTEX
  8
MMIC_Via
  10
293.529
  20
179.371
  0
VERTEX
  8
MMIC_Via
  10
292.772
  20
180.634
  0
VERTEX
  8
MMIC_Via
  10
291.895
  20
181.816
  0
VERTEX
  8
MMIC_Via
  10
290.907
  20
182.907
  0
VERTEX
  8
MMIC_Via
  10
289.816
  20
183.895
  0
VERTEX
  8
MMIC_Via
  10
288.634
  20
184.772
  0
VERTEX
  8
MMIC_Via
  10
287.371
  20
185.529
  0
VERTEX
  8
MMIC_Via
  10
286.04
  20
186.158
  0
VERTEX
  8
MMIC_Via
  10
284.654
  20
186.654
  0
VERTEX
  8
MMIC_Via
  10
283.226
  20
187.012
  0
VERTEX
  8
MMIC_Via
  10
281.77
  20
187.228
  0
VERTEX
  8
MMIC_Via
  10
280.3
  20
187.3
  0
VERTEX
  8
MMIC_Via
  10
250.3
  20
187.3
  0
VERTEX
  8
MMIC_Via
  10
248.83
  20
187.228
  0
VERTEX
  8
MMIC_Via
  10
247.374
  20
187.012
  0
VERTEX
  8
MMIC_Via
  10
245.946
  20
186.654
  0
VERTEX
  8
MMIC_Via
  10
244.56
  20
186.158
  0
VERTEX
  8
MMIC_Via
  10
243.229
  20
185.529
  0
VERTEX
  8
MMIC_Via
  10
241.966
  20
184.772
  0
VERTEX
  8
MMIC_Via
  10
240.784
  20
183.895
  0
VERTEX
  8
MMIC_Via
  10
239.693
  20
182.907
  0
VERTEX
  8
MMIC_Via
  10
238.705
  20
181.816
  0
VERTEX
  8
MMIC_Via
  10
237.828
  20
180.634
  0
VERTEX
  8
MMIC_Via
  10
237.071
  20
179.371
  0
VERTEX
  8
MMIC_Via
  10
236.442
  20
178.04
  0
VERTEX
  8
MMIC_Via
  10
235.946
  20
176.654
  0
VERTEX
  8
MMIC_Via
  10
235.588
  20
175.226
  0
VERTEX
  8
MMIC_Via
  10
235.372
  20
173.77
  0
SEQEND
  0
POLYLINE
  8
MMIC_Trace
  70
1
  66
1
  0
VERTEX
  8
MMIC_Trace
  10
-601.269
  20
-161.403
  0
VERTEX
  8
MMIC_Trace
  10
-600.939
  20
-162.327
  0
VERTEX
  8
MMIC_Trace
  10
-600.519
  20
-163.214
  0
VERTEX
  8
MMIC_Trace
  10
-600.015
  20
-164.056
  0
VERTEX
  8
MMIC_Trace
  10
-599.43
  20
-164.844
  0
VERTEX
  8
MMIC_Trace
  10
-598.771
  20
-165.571
  0
VERTEX
  8
MMIC_Trace
  10
-598.044
  20
-166.23
  0
VERTEX
  8
MMIC_Trace
  10
-597.256
  20
-166.815
  0
VERTEX
  8
MMIC_Trace
  10
-596.414
  20
-167.319
  0
VERTEX
  8
MMIC_Trace
  10
-595.527
  20
-167.739
  0
VERTEX
  8
MMIC_Trace
  10
-594.603
  20
-168.069
  0
VERTEX
  8
MMIC_Trace
  10
-593.651
  20
-168.308
  0
VERTEX
  8
MMIC_Trace
  10
-592.68
  20
-168.452
  0
VERTEX
  8
MMIC_Trace
  10
-591.7
  20
-168.5
  0
VERTEX
  8
MMIC_Trace
  10
-510.7
  20
-168.5
  0
VERTEX
  8
MMIC_Trace
  10
-509.72
  20
-168.452
  0
VERTEX
  8
MMIC_Trace
  10
-508.749
  20
-168.308
  0
VERTEX
  8
MMIC_Trace
  10
-507.797
  20
-168.069
  0
VERTEX
  8
MMIC_Trace
  10
-506.873
  20
-167.739
  0
VERTEX
  8
MMIC_Trace
  10
-505.986
  20
-167.319
  0
VERTEX
  8
MMIC_Trace
  10
-505.144
  20
-166.815
  0
VERTEX
  8
MMIC_Trace
  10
-504.356
  20
-166.23
  0
VERTEX
  8
MMIC_Trace
  10
-503.629
  20
-165.571
  0
VERTEX
  8
MMIC_Trace
  10
-502.97
  20
-164.844
  0
VERTEX
  8
MMIC_Trace
  10
-502.385
  20
-164.056
  0
VERTEX
  8
MMIC_Trace
  10
-501.881
  20
-163.214
  0
VERTEX
  8
MMIC_Trace
  10
-501.461
  20
-162.327
  0
VERTEX
  8
MMIC_Trace
  10
-501.131
  20
-161.403
  0
VERTEX
  8
MMIC_Trace
  10
-500.892
  20
-160.451
  0
VERTEX
  8
MMIC_Trace
  10
-500.748
  20
-159.48
  0
VERTEX
  8
MMIC_Trace
  10
-500.7
  20
-158.5
  0
VERTEX
  8
MMIC_Trace
  10
-500.7
  20
21.5
  0
VERTEX
  8
MMIC_Trace
  10
-500.748
  20
22.48
  0
VERTEX
  8
MMIC_Trace
  10
-500.892
  20
23.451
  0
VERTEX
  8
MMIC_Trace
  10
-501.131
  20
24.403
  0
VERTEX
  8
MMIC_Trace
  10
-501.461
  20
25.327
  0
VERTEX
  8
MMIC_Trace
  10
-501.881
  20
26.214
  0
VERTEX
  8
MMIC_Trace
  10
-502.385
  20
27.056
  0
VERTEX
  8
MMIC_Trace
  10
-502.97
  20
27.844
  0
VERTEX
  8
MMIC_Trace
  10
-503.629
  20
28.571
  0
VERTEX
  8
MMIC_Trace
  10
-504.356
  20
29.23
  0
VERTEX
  8
MMIC_Trace
  10
-505.144
  20
29.815
  0
VERTEX
  8
MMIC_Trace
  10
-505.986
  20
30.319
  0
VERTEX
  8
MMIC_Trace
  10
-506.873
  20
30.739
  0
VERTEX
  8
MMIC_Trace
  10
-507.797
  20
31.069
  0
VERTEX
  8
MMIC_Trace
  10
-508.749
  20
31.308
  0
VERTEX
  8
MMIC_Trace
  10
-509.72
  20
31.452
  0
VERTEX
  8
MMIC_Trace
  10
-510.7
  20
31.5
  0
VERTEX
  8
MMIC_Trace
  10
-591.7
  20
31.5
  0
VERTEX
  8
MMIC_Trace
  10
-592.68
  20
31.452
  0
VERTEX
  8
MMIC_Trace
  10
-593.651
  20
31.308
  0
VERTEX
  8
MMIC_Trace
  10
-594.603
  20
31.069
  0
VERTEX
  8
MMIC_Trace
  10
-595.527
  20
30.739
  0
VERTEX
  8
MMIC_Trace
  10
-596.414
  20
30.319
  0
VERTEX
  8
MMIC_Trace
  10
-597.256
  20
29.815
  0
VERTEX
  8
MMIC_Trace
  10
-598.044
  20
29.23
  0
VERTEX
  8
MMIC_Trace
  10
-598.771
  20
28.571
  0
VERTEX
  8
MMIC_Trace
  10
-599.43
  20
27.844
  0
VERTEX
  8
MMIC_Trace
  10
-600.015
  20
27.056
  0
VERTEX
  8
MMIC_Trace
  10
-600.519
  20
26.214
  0
VERTEX
  8
MMIC_Trace
  10
-600.939
  20
25.327
  0
VERTEX
  8
MMIC_Trace
  10
-601.269
  20
24.403
  0
VERTEX
  8
MMIC_Trace
  10
-601.508
  20
23.451
  0
VERTEX
  8
MMIC_Trace
  10
-601.652
  20
22.48
  0
VERTEX
  8
MMIC_Trace
  10
-601.7
  20
21.5
  0
VERTEX
  8
MMIC_Trace
  10
-601.7
  20
-158.5
  0
VERTEX
  8
MMIC_Trace
  10
-601.652
  20
-159.48
  0
VERTEX
  8
MMIC_Trace
  10
-601.508
  20
-160.451
  0
SEQEND
  0
POLYLINE
  8
MMIC_Trace
  70
1
  66
1
  0
VERTEX
  8
MMIC_Trace
  10
221.731
  20
-161.403
  0
VERTEX
  8
MMIC_Trace
  10
222.061
  20
-162.327
  0
VERTEX
  8
MMIC_Trace
  10
222.481
  20
-163.214
  0
VERTEX
  8
MMIC_Trace
  10
222.985
  20
-164.056
  0
VERTEX
  8
MMIC_Trace
  10
223.57
  20
-164.844
  0
VERTEX
  8
MMIC_Trace
  10
224.229
  20
-165.571
  0
VERTEX
  8
MMIC_Trace
  10
224.956
  20
-166.23
  0
VERTEX
  8
MMIC_Trace
  10
225.744
  20
-166.815
  0
VERTEX
  8
MMIC_Trace
  10
226.586
  20
-167.319
  0
VERTEX
  8
MMIC_Trace
  10
227.473
  20
-167.739
  0
VERTEX
  8
MMIC_Trace
  10
228.397
  20
-168.069
  0
VERTEX
  8
MMIC_Trace
  10
229.349
  20
-168.308
  0
VERTEX
  8
MMIC_Trace
  10
230.32
  20
-168.452
  0
VERTEX
  8
MMIC_Trace
  10
231.3
  20
-168.5
  0
VERTEX
  8
MMIC_Trace
  10
312.3
  20
-168.5
  0
VERTEX
  8
MMIC_Trace
  10
313.28
  20
-168.452
  0
VERTEX
  8
MMIC_Trace
  10
314.251
  20
-168.308
  0
VERTEX
  8
MMIC_Trace
  10
315.203
  20
-168.069
  0
VERTEX
  8
MMIC_Trace
  10
316.127
  20
-167.739
  0
VERTEX
  8
MMIC_Trace
  10
317.014
  20
-167.319
  0
VERTEX
  8
MMIC_Trace
  10
317.856
  20
-166.815
  0
VERTEX
  8
MMIC_Trace
  10
318.644
  20
-166.23
  0
VERTEX
  8
MMIC_Trace
  10
319.371
  20
-165.571
  0
VERTEX
  8
MMIC_Trace
  10
320.03
  20
-164.844
  0
VERTEX
  8
MMIC_Trace
  10
320.615
  20
-164.056
  0
VERTEX
  8
MMIC_Trace
  10
321.119
  20
-163.214
  0
VERTEX
  8
MMIC_Trace
  10
321.539
  20
-162.327
  0
VERTEX
  8
MMIC_Trace
  10
321.869
  20
-161.403
  0
VERTEX
  8
MMIC_Trace
  10
322.108
  20
-160.451
  0
VERTEX
  8
MMIC_Trace
  10
322.252
  20
-159.48
  0
VERTEX
  8
MMIC_Trace
  10
322.3
  20
-158.5
  0
VERTEX
  8
MMIC_Trace
  10
322.3
  20
21.5
  0
VERTEX
  8
MMIC_Trace
  10
322.252
  20
22.48
  0
VERTEX
  8
MMIC_Trace
  10
322.108
  20
23.451
  0
VERTEX
  8
MMIC_Trace
  10
321.869
  20
24.403
  0
VERTEX
  8
MMIC_Trace
  10
321.539
  20
25.327
  0
VERTEX
  8
MMIC_Trace
  10
321.119
  20
26.214
  0
VERTEX
  8
MMIC_Trace
  10
320.615
  20
27.056
  0
VERTEX
  8
MMIC_Trace
  10
320.03
  20
27.844
  0
VERTEX
  8
MMIC_Trace
  10
319.371
  20
28.571
  0
VERTEX
  8
MMIC_Trace
  10
318.644
  20
29.23
  0
VERTEX
  8
MMIC_Trace
  10
317.856
  20
29.815
  0
VERTEX
  8
MMIC_Trace
  10
317.014
  20
30.319
  0
VERTEX
  8
MMIC_Trace
  10
316.127
  20
30.739
  0
VERTEX
  8
MMIC_Trace
  10
315.203
  20
31.069
  0
VERTEX
  8
MMIC_Trace
  10
314.251
  20
31.308
  0
VERTEX
  8
MMIC_Trace
  10
313.28
  20
31.452
  0
VERTEX
  8
MMIC_Trace
  10
312.3
  20
31.5
  0
VERTEX
  8
MMIC_Trace
  10
231.3
  20
31.5
  0
VERTEX
  8
MMIC_Trace
  10
230.32
  20
31.452
  0
VERTEX
  8
MMIC_Trace
  10
229.349
  20
31.308
  0
VERTEX
  8
MMIC_Trace
  10
228.397
  20
31.069
  0
VERTEX
  8
MMIC_Trace
  10
227.473
  20
30.739
  0
VERTEX
  8
MMIC_Trace
  10
226.586
  20
30.319
  0
VERTEX
  8
MMIC_Trace
  10
225.744
  20
29.815
  0
VERTEX
  8
MMIC_Trace
  10
224.956
  20
29.23
  0
VERTEX
  8
MMIC_Trace
  10
224.229
  20
28.571
  0
VERTEX
  8
MMIC_Trace
  10
223.57
  20
27.844
  0
VERTEX
  8
MMIC_Trace
  10
222.985
  20
27.056
  0
VERTEX
  8
MMIC_Trace
  10
222.481
  20
26.214
  0
VERTEX
  8
MMIC_Trace
  10
222.061
  20
25.327
  0
VERTEX
  8
MMIC_Trace
  10
221.731
  20
24.403
  0
VERTEX
  8
MMIC_Trace
  10
221.492
  20
23.451
  0
VERTEX
  8
MMIC_Trace
  10
221.348
  20
22.48
  0
VERTEX
  8
MMIC_Trace
  10
221.3
  20
21.5
  0
VERTEX
  8
MMIC_Trace
  10
221.3
  20
-158.5
  0
VERTEX
  8
MMIC_Trace
  10
221.348
  20
-159.48
  0
VERTEX
  8
MMIC_Trace
  10
221.492
  20
-160.451
  0
SEQEND
  0
POLYLINE
  8
MMIC_Trace
  70
1
  66
1
  0
VERTEX
  8
MMIC_Trace
  10
-591.7
  20
-265.5
  0
VERTEX
  8
MMIC_Trace
  10
-591
  20
-265.5
  0
VERTEX
  8
MMIC_Trace
  10
-591
  20
-334.1
  0
VERTEX
  8
MMIC_Trace
  10
-590.951
  20
-335.08
  0
VERTEX
  8
MMIC_Trace
  10
-590.807
  20
-336.05
  0
VERTEX
  8
MMIC_Trace
  10
-590.569
  20
-337.002
  0
VERTEX
  8
MMIC_Trace
  10
-590.238
  20
-337.926
  0
VERTEX
  8
MMIC_Trace
  10
-589.819
  20
-338.813
  0
VERTEX
  8
MMIC_Trace
  10
-589.314
  20
-339.655
  0
VERTEX
  8
MMIC_Trace
  10
-588.73
  20
-340.443
  0
VERTEX
  8
MMIC_Trace
  10
-588.071
  20
-341.171
  0
VERTEX
  8
MMIC_Trace
  10
-587.343
  20
-341.83
  0
VERTEX
  8
MMIC_Trace
  10
-586.555
  20
-342.414
  0
VERTEX
  8
MMIC_Trace
  10
-585.713
  20
-342.919
  0
VERTEX
  8
MMIC_Trace
  10
-584.826
  20
-343.338
  0
VERTEX
  8
MMIC_Trace
  10
-583.902
  20
-343.669
  0
VERTEX
  8
MMIC_Trace
  10
-582.95
  20
-343.907
  0
VERTEX
  8
MMIC_Trace
  10
-581.98
  20
-344.051
  0
VERTEX
  8
MMIC_Trace
  10
-581
  20
-344.1
  0
VERTEX
  8
MMIC_Trace
  10
-508.4
  20
-344.1
  0
VERTEX
  8
MMIC_Trace
  10
-507.42
  20
-344.051
  0
VERTEX
  8
MMIC_Trace
  10
-506.45
  20
-343.907
  0
VERTEX
  8
MMIC_Trace
  10
-505.498
  20
-343.669
  0
VERTEX
  8
MMIC_Trace
  10
-504.574
  20
-343.338
  0
VERTEX
  8
MMIC_Trace
  10
-503.687
  20
-342.919
  0
VERTEX
  8
MMIC_Trace
  10
-502.845
  20
-342.414
  0
VERTEX
  8
MMIC_Trace
  10
-502.057
  20
-341.83
  0
VERTEX
  8
MMIC_Trace
  10
-501.329
  20
-341.171
  0
VERTEX
  8
MMIC_Trace
  10
-500.67
  20
-340.443
  0
VERTEX
  8
MMIC_Trace
  10
-500.086
  20
-339.655
  0
VERTEX
  8
MMIC_Trace
  10
-499.581
  20
-338.813
  0
VERTEX
  8
MMIC_Trace
  10
-499.162
  20
-337.926
  0
VERTEX
  8
MMIC_Trace
  10
-498.831
  20
-337.002
  0
VERTEX
  8
MMIC_Trace
  10
-498.593
  20
-336.05
  0
VERTEX
  8
MMIC_Trace
  10
-498.449
  20
-335.08
  0
VERTEX
  8
MMIC_Trace
  10
-498.4
  20
-334.1
  0
VERTEX
  8
MMIC_Trace
  10
-498.4
  20
-284.5
  0
VERTEX
  8
MMIC_Trace
  10
-498.449
  20
-283.519
  0
VERTEX
  8
MMIC_Trace
  10
-498.593
  20
-282.549
  0
VERTEX
  8
MMIC_Trace
  10
-498.831
  20
-281.597
  0
VERTEX
  8
MMIC_Trace
  10
-499.162
  20
-280.673
  0
VERTEX
  8
MMIC_Trace
  10
-499.581
  20
-279.786
  0
VERTEX
  8
MMIC_Trace
  10
-500.086
  20
-278.944
  0
VERTEX
  8
MMIC_Trace
  10
-500.67
  20
-278.156
  0
VERTEX
  8
MMIC_Trace
  10
-501.329
  20
-277.428
  0
VERTEX
  8
MMIC_Trace
  10
-502.057
  20
-276.769
  0
VERTEX
  8
MMIC_Trace
  10
-502.845
  20
-276.185
  0
VERTEX
  8
MMIC_Trace
  10
-503.687
  20
-275.68
  0
VERTEX
  8
MMIC_Trace
  10
-504.574
  20
-275.261
  0
VERTEX
  8
MMIC_Trace
  10
-505.498
  20
-274.93
  0
VERTEX
  8
MMIC_Trace
  10
-506.45
  20
-274.692
  0
VERTEX
  8
MMIC_Trace
  10
-507.42
  20
-274.548
  0
VERTEX
  8
MMIC_Trace
  10
-508.4
  20
-274.5
  0
VERTEX
  8
MMIC_Trace
  10
-520.7
  20
-274.5
  0
VERTEX
  8
MMIC_Trace
  10
-520.7
  20
-265.5
  0
VERTEX
  8
MMIC_Trace
  10
-510.7
  20
-265.5
  0
VERTEX
  8
MMIC_Trace
  10
-509.72
  20
-265.452
  0
VERTEX
  8
MMIC_Trace
  10
-508.749
  20
-265.308
  0
VERTEX
  8
MMIC_Trace
  10
-507.797
  20
-265.069
  0
VERTEX
  8
MMIC_Trace
  10
-506.873
  20
-264.739
  0
VERTEX
  8
MMIC_Trace
  10
-505.986
  20
-264.319
  0
VERTEX
  8
MMIC_Trace
  10
-505.144
  20
-263.815
  0
VERTEX
  8
MMIC_Trace
  10
-504.356
  20
-263.23
  0
VERTEX
  8
MMIC_Trace
  10
-503.629
  20
-262.571
  0
VERTEX
  8
MMIC_Trace
  10
-502.97
  20
-261.844
  0
VERTEX
  8
MMIC_Trace
  10
-502.385
  20
-261.056
  0
VERTEX
  8
MMIC_Trace
  10
-501.881
  20
-260.214
  0
VERTEX
  8
MMIC_Trace
  10
-501.461
  20
-259.327
  0
VERTEX
  8
MMIC_Trace
  10
-501.131
  20
-258.403
  0
VERTEX
  8
MMIC_Trace
  10
-500.892
  20
-257.451
  0
VERTEX
  8
MMIC_Trace
  10
-500.748
  20
-256.48
  0
VERTEX
  8
MMIC_Trace
  10
-500.7
  20
-255.5
  0
VERTEX
  8
MMIC_Trace
  10
-500.7
  20
-200.5
  0
VERTEX
  8
MMIC_Trace
  10
-500.748
  20
-199.52
  0
VERTEX
  8
MMIC_Trace
  10
-500.892
  20
-198.549
  0
VERTEX
  8
MMIC_Trace
  10
-501.131
  20
-197.597
  0
VERTEX
  8
MMIC_Trace
  10
-501.461
  20
-196.673
  0
VERTEX
  8
MMIC_Trace
  10
-501.881
  20
-195.786
  0
VERTEX
  8
MMIC_Trace
  10
-502.385
  20
-194.944
  0
VERTEX
  8
MMIC_Trace
  10
-502.97
  20
-194.156
  0
VERTEX
  8
MMIC_Trace
  10
-503.629
  20
-193.429
  0
VERTEX
  8
MMIC_Trace
  10
-504.356
  20
-192.77
  0
VERTEX
  8
MMIC_Trace
  10
-505.144
  20
-192.185
  0
VERTEX
  8
MMIC_Trace
  10
-505.986
  20
-191.681
  0
VERTEX
  8
MMIC_Trace
  10
-506.873
  20
-191.261
  0
VERTEX
  8
MMIC_Trace
  10
-507.797
  20
-190.931
  0
VERTEX
  8
MMIC_Trace
  10
-508.749
  20
-190.692
  0
VERTEX
  8
MMIC_Trace
  10
-509.72
  20
-190.548
  0
VERTEX
  8
MMIC_Trace
  10
-510.7
  20
-190.5
  0
VERTEX
  8
MMIC_Trace
  10
-591.7
  20
-190.5
  0
VERTEX
  8
MMIC_Trace
  10
-592.68
  20
-190.548
  0
VERTEX
  8
MMIC_Trace
  10
-593.651
  20
-190.692
  0
VERTEX
  8
MMIC_Trace
  10
-594.603
  20
-190.931
  0
VERTEX
  8
MMIC_Trace
  10
-595.527
  20
-191.261
  0
VERTEX
  8
MMIC_Trace
  10
-596.414
  20
-191.681
  0
VERTEX
  8
MMIC_Trace
  10
-597.256
  20
-192.185
  0
VERTEX
  8
MMIC_Trace
  10
-598.044
  20
-192.77
  0
VERTEX
  8
MMIC_Trace
  10
-598.771
  20
-193.429
  0
VERTEX
  8
MMIC_Trace
  10
-599.43
  20
-194.156
  0
VERTEX
  8
MMIC_Trace
  10
-600.015
  20
-194.944
  0
VERTEX
  8
MMIC_Trace
  10
-600.519
  20
-195.786
  0
VERTEX
  8
MMIC_Trace
  10
-600.939
  20
-196.673
  0
VERTEX
  8
MMIC_Trace
  10
-601.269
  20
-197.597
  0
VERTEX
  8
MMIC_Trace
  10
-601.508
  20
-198.549
  0
VERTEX
  8
MMIC_Trace
  10
-601.652
  20
-199.52
  0
VERTEX
  8
MMIC_Trace
  10
-601.7
  20
-200.5
  0
VERTEX
  8
MMIC_Trace
  10
-601.7
  20
-255.5
  0
VERTEX
  8
MMIC_Trace
  10
-601.652
  20
-256.48
  0
VERTEX
  8
MMIC_Trace
  10
-601.508
  20
-257.451
  0
VERTEX
  8
MMIC_Trace
  10
-601.269
  20
-258.403
  0
VERTEX
  8
MMIC_Trace
  10
-600.939
  20
-259.327
  0
VERTEX
  8
MMIC_Trace
  10
-600.519
  20
-260.214
  0
VERTEX
  8
MMIC_Trace
  10
-600.015
  20
-261.056
  0
VERTEX
  8
MMIC_Trace
  10
-599.43
  20
-261.844
  0
VERTEX
  8
MMIC_Trace
  10
-598.771
  20
-262.571
  0
VERTEX
  8
MMIC_Trace
  10
-598.044
  20
-263.23
  0
VERTEX
  8
MMIC_Trace
  10
-597.256
  20
-263.815
  0
VERTEX
  8
MMIC_Trace
  10
-596.414
  20
-264.319
  0
VERTEX
  8
MMIC_Trace
  10
-595.527
  20
-264.739
  0
VERTEX
  8
MMIC_Trace
  10
-594.603
  20
-265.069
  0
VERTEX
  8
MMIC_Trace
  10
-593.651
  20
-265.308
  0
VERTEX
  8
MMIC_Trace
  10
-592.68
  20
-265.452
  0
SEQEND
  0
POLYLINE
  8
MMIC_Trace
  70
1
  66
1
  0
VERTEX
  8
MMIC_Trace
  10
-591
  20
128.5
  0
VERTEX
  8
MMIC_Trace
  10
-591.7
  20
128.5
  0
VERTEX
  8
MMIC_Trace
  10
-592.68
  20
128.452
  0
VERTEX
  8
MMIC_Trace
  10
-593.651
  20
128.308
  0
VERTEX
  8
MMIC_Trace
  10
-594.603
  20
128.069
  0
VERTEX
  8
MMIC_Trace
  10
-595.527
  20
127.739
  0
VERTEX
  8
MMIC_Trace
  10
-596.414
  20
127.319
  0
VERTEX
  8
MMIC_Trace
  10
-597.256
  20
126.815
  0
VERTEX
  8
MMIC_Trace
  10
-598.044
  20
126.23
  0
VERTEX
  8
MMIC_Trace
  10
-598.771
  20
125.571
  0
VERTEX
  8
MMIC_Trace
  10
-599.43
  20
124.844
  0
VERTEX
  8
MMIC_Trace
  10
-600.015
  20
124.056
  0
VERTEX
  8
MMIC_Trace
  10
-600.519
  20
123.214
  0
VERTEX
  8
MMIC_Trace
  10
-600.939
  20
122.327
  0
VERTEX
  8
MMIC_Trace
  10
-601.269
  20
121.403
  0
VERTEX
  8
MMIC_Trace
  10
-601.508
  20
120.451
  0
VERTEX
  8
MMIC_Trace
  10
-601.652
  20
119.48
  0
VERTEX
  8
MMIC_Trace
  10
-601.7
  20
118.5
  0
VERTEX
  8
MMIC_Trace
  10
-601.7
  20
63.5
  0
VERTEX
  8
MMIC_Trace
  10
-601.652
  20
62.52
  0
VERTEX
  8
MMIC_Trace
  10
-601.508
  20
61.549
  0
VERTEX
  8
MMIC_Trace
  10
-601.269
  20
60.597
  0
VERTEX
  8
MMIC_Trace
  10
-600.939
  20
59.673
  0
VERTEX
  8
MMIC_Trace
  10
-600.519
  20
58.786
  0
VERTEX
  8
MMIC_Trace
  10
-600.015
  20
57.944
  0
VERTEX
  8
MMIC_Trace
  10
-599.43
  20
57.156
  0
VERTEX
  8
MMIC_Trace
  10
-598.771
  20
56.429
  0
VERTEX
  8
MMIC_Trace
  10
-598.044
  20
55.77
  0
VERTEX
  8
MMIC_Trace
  10
-597.256
  20
55.185
  0
VERTEX
  8
MMIC_Trace
  10
-596.414
  20
54.681
  0
VERTEX
  8
MMIC_Trace
  10
-595.527
  20
54.261
  0
VERTEX
  8
MMIC_Trace
  10
-594.603
  20
53.931
  0
VERTEX
  8
MMIC_Trace
  10
-593.651
  20
53.692
  0
VERTEX
  8
MMIC_Trace
  10
-592.68
  20
53.548
  0
VERTEX
  8
MMIC_Trace
  10
-591.7
  20
53.5
  0
VERTEX
  8
MMIC_Trace
  10
-510.7
  20
53.5
  0
VERTEX
  8
MMIC_Trace
  10
-509.72
  20
53.548
  0
VERTEX
  8
MMIC_Trace
  10
-508.749
  20
53.692
  0
VERTEX
  8
MMIC_Trace
  10
-507.797
  20
53.931
  0
VERTEX
  8
MMIC_Trace
  10
-506.873
  20
54.261
  0
VERTEX
  8
MMIC_Trace
  10
-505.986
  20
54.681
  0
VERTEX
  8
MMIC_Trace
  10
-505.144
  20
55.185
  0
VERTEX
  8
MMIC_Trace
  10
-504.356
  20
55.77
  0
VERTEX
  8
MMIC_Trace
  10
-503.629
  20
56.429
  0
VERTEX
  8
MMIC_Trace
  10
-502.97
  20
57.156
  0
VERTEX
  8
MMIC_Trace
  10
-502.385
  20
57.944
  0
VERTEX
  8
MMIC_Trace
  10
-501.881
  20
58.786
  0
VERTEX
  8
MMIC_Trace
  10
-501.461
  20
59.673
  0
VERTEX
  8
MMIC_Trace
  10
-501.131
  20
60.597
  0
VERTEX
  8
MMIC_Trace
  10
-500.892
  20
61.549
  0
VERTEX
  8
MMIC_Trace
  10
-500.748
  20
62.52
  0
VERTEX
  8
MMIC_Trace
  10
-500.7
  20
63.5
  0
VERTEX
  8
MMIC_Trace
  10
-500.7
  20
118.5
  0
VERTEX
  8
MMIC_Trace
  10
-500.748
  20
119.48
  0
VERTEX
  8
MMIC_Trace
  10
-500.892
  20
120.451
  0
VERTEX
  8
MMIC_Trace
  10
-501.131
  20
121.403
  0
VERTEX
  8
MMIC_Trace
  10
-501.461
  20
122.327
  0
VERTEX
  8
MMIC_Trace
  10
-501.881
  20
123.214
  0
VERTEX
  8
MMIC_Trace
  10
-502.385
  20
124.056
  0
VERTEX
  8
MMIC_Trace
  10
-502.97
  20
124.844
  0
VERTEX
  8
MMIC_Trace
  10
-503.629
  20
125.571
  0
VERTEX
  8
MMIC_Trace
  10
-504.356
  20
126.23
  0
VERTEX
  8
MMIC_Trace
  10
-505.144
  20
126.815
  0
VERTEX
  8
MMIC_Trace
  10
-505.986
  20
127.319
  0
VERTEX
  8
MMIC_Trace
  10
-506.873
  20
127.739
  0
VERTEX
  8
MMIC_Trace
  10
-507.797
  20
128.069
  0
VERTEX
  8
MMIC_Trace
  10
-508.749
  20
128.308
  0
VERTEX
  8
MMIC_Trace
  10
-509.72
  20
128.452
  0
VERTEX
  8
MMIC_Trace
  10
-510.7
  20
128.5
  0
VERTEX
  8
MMIC_Trace
  10
-520.7
  20
128.5
  0
VERTEX
  8
MMIC_Trace
  10
-520.7
  20
137.5
  0
VERTEX
  8
MMIC_Trace
  10
-508.4
  20
137.5
  0
VERTEX
  8
MMIC_Trace
  10
-507.42
  20
137.548
  0
VERTEX
  8
MMIC_Trace
  10
-506.45
  20
137.692
  0
VERTEX
  8
MMIC_Trace
  10
-505.498
  20
137.93
  0
VERTEX
  8
MMIC_Trace
  10
-504.574
  20
138.261
  0
VERTEX
  8
MMIC_Trace
  10
-503.687
  20
138.68
  0
VERTEX
  8
MMIC_Trace
  10
-502.845
  20
139.185
  0
VERTEX
  8
MMIC_Trace
  10
-502.057
  20
139.769
  0
VERTEX
  8
MMIC_Trace
  10
-501.329
  20
140.428
  0
VERTEX
  8
MMIC_Trace
  10
-500.67
  20
141.156
  0
VERTEX
  8
MMIC_Trace
  10
-500.086
  20
141.944
  0
VERTEX
  8
MMIC_Trace
  10
-499.581
  20
142.786
  0
VERTEX
  8
MMIC_Trace
  10
-499.162
  20
143.673
  0
VERTEX
  8
MMIC_Trace
  10
-498.831
  20
144.597
  0
VERTEX
  8
MMIC_Trace
  10
-498.593
  20
145.549
  0
VERTEX
  8
MMIC_Trace
  10
-498.449
  20
146.519
  0
VERTEX
  8
MMIC_Trace
  10
-498.4
  20
147.5
  0
VERTEX
  8
MMIC_Trace
  10
-498.4
  20
197.1
  0
VERTEX
  8
MMIC_Trace
  10
-498.449
  20
198.08
  0
VERTEX
  8
MMIC_Trace
  10
-498.593
  20
199.05
  0
VERTEX
  8
MMIC_Trace
  10
-498.831
  20
200.002
  0
VERTEX
  8
MMIC_Trace
  10
-499.162
  20
200.926
  0
VERTEX
  8
MMIC_Trace
  10
-499.581
  20
201.813
  0
VERTEX
  8
MMIC_Trace
  10
-500.086
  20
202.655
  0
VERTEX
  8
MMIC_Trace
  10
-500.67
  20
203.443
  0
VERTEX
  8
MMIC_Trace
  10
-501.329
  20
204.171
  0
VERTEX
  8
MMIC_Trace
  10
-502.057
  20
204.83
  0
VERTEX
  8
MMIC_Trace
  10
-502.845
  20
205.414
  0
VERTEX
  8
MMIC_Trace
  10
-503.687
  20
205.919
  0
VERTEX
  8
MMIC_Trace
  10
-504.574
  20
206.338
  0
VERTEX
  8
MMIC_Trace
  10
-505.498
  20
206.669
  0
VERTEX
  8
MMIC_Trace
  10
-506.45
  20
206.907
  0
VERTEX
  8
MMIC_Trace
  10
-507.42
  20
207.051
  0
VERTEX
  8
MMIC_Trace
  10
-508.4
  20
207.1
  0
VERTEX
  8
MMIC_Trace
  10
-581
  20
207.1
  0
VERTEX
  8
MMIC_Trace
  10
-581.98
  20
207.051
  0
VERTEX
  8
MMIC_Trace
  10
-582.95
  20
206.907
  0
VERTEX
  8
MMIC_Trace
  10
-583.902
  20
206.669
  0
VERTEX
  8
MMIC_Trace
  10
-584.826
  20
206.338
  0
VERTEX
  8
MMIC_Trace
  10
-585.713
  20
205.919
  0
VERTEX
  8
MMIC_Trace
  10
-586.555
  20
205.414
  0
VERTEX
  8
MMIC_Trace
  10
-587.343
  20
204.83
  0
VERTEX
  8
MMIC_Trace
  10
-588.071
  20
204.171
  0
VERTEX
  8
MMIC_Trace
  10
-588.73
  20
203.443
  0
VERTEX
  8
MMIC_Trace
  10
-589.314
  20
202.655
  0
VERTEX
  8
MMIC_Trace
  10
-589.819
  20
201.813
  0
VERTEX
  8
MMIC_Trace
  10
-590.238
  20
200.926
  0
VERTEX
  8
MMIC_Trace
  10
-590.569
  20
200.002
  0
VERTEX
  8
MMIC_Trace
  10
-590.807
  20
199.05
  0
VERTEX
  8
MMIC_Trace
  10
-590.951
  20
198.08
  0
VERTEX
  8
MMIC_Trace
  10
-591
  20
197.1
  0
SEQEND
  0
POLYLINE
  8
MMIC_Trace
  70
1
  66
1
  0
VERTEX
  8
MMIC_Trace
  10
312.3
  20
128.5
  0
VERTEX
  8
MMIC_Trace
  10
311.6
  20
128.5
  0
VERTEX
  8
MMIC_Trace
  10
311.6
  20
197.1
  0
VERTEX
  8
MMIC_Trace
  10
311.551
  20
198.08
  0
VERTEX
  8
MMIC_Trace
  10
311.407
  20
199.05
  0
VERTEX
  8
MMIC_Trace
  10
311.169
  20
200.002
  0
VERTEX
  8
MMIC_Trace
  10
310.838
  20
200.926
  0
VERTEX
  8
MMIC_Trace
  10
310.419
  20
201.813
  0
VERTEX
  8
MMIC_Trace
  10
309.914
  20
202.655
  0
VERTEX
  8
MMIC_Trace
  10
309.33
  20
203.443
  0
VERTEX
  8
MMIC_Trace
  10
308.671
  20
204.171
  0
VERTEX
  8
MMIC_Trace
  10
307.943
  20
204.83
  0
VERTEX
  8
MMIC_Trace
  10
307.155
  20
205.414
  0
VERTEX
  8
MMIC_Trace
  10
306.313
  20
205.919
  0
VERTEX
  8
MMIC_Trace
  10
305.426
  20
206.338
  0
VERTEX
  8
MMIC_Trace
  10
304.502
  20
206.669
  0
VERTEX
  8
MMIC_Trace
  10
303.55
  20
206.907
  0
VERTEX
  8
MMIC_Trace
  10
302.58
  20
207.051
  0
VERTEX
  8
MMIC_Trace
  10
301.6
  20
207.1
  0
VERTEX
  8
MMIC_Trace
  10
229
  20
207.1
  0
VERTEX
  8
MMIC_Trace
  10
228.02
  20
207.051
  0
VERTEX
  8
MMIC_Trace
  10
227.05
  20
206.907
  0
VERTEX
  8
MMIC_Trace
  10
226.098
  20
206.669
  0
VERTEX
  8
MMIC_Trace
  10
225.174
  20
206.338
  0
VERTEX
  8
MMIC_Trace
  10
224.287
  20
205.919
  0
VERTEX
  8
MMIC_Trace
  10
223.445
  20
205.414
  0
VERTEX
  8
MMIC_Trace
  10
222.657
  20
204.83
  0
VERTEX
  8
MMIC_Trace
  10
221.929
  20
204.171
  0
VERTEX
  8
MMIC_Trace
  10
221.27
  20
203.443
  0
VERTEX
  8
MMIC_Trace
  10
220.686
  20
202.655
  0
VERTEX
  8
MMIC_Trace
  10
220.181
  20
201.813
  0
VERTEX
  8
MMIC_Trace
  10
219.762
  20
200.926
  0
VERTEX
  8
MMIC_Trace
  10
219.431
  20
200.002
  0
VERTEX
  8
MMIC_Trace
  10
219.193
  20
199.05
  0
VERTEX
  8
MMIC_Trace
  10
219.049
  20
198.08
  0
VERTEX
  8
MMIC_Trace
  10
219
  20
197.1
  0
VERTEX
  8
MMIC_Trace
  10
219
  20
147.5
  0
VERTEX
  8
MMIC_Trace
  10
219.049
  20
146.519
  0
VERTEX
  8
MMIC_Trace
  10
219.193
  20
145.549
  0
VERTEX
  8
MMIC_Trace
  10
219.431
  20
144.597
  0
VERTEX
  8
MMIC_Trace
  10
219.762
  20
143.673
  0
VERTEX
  8
MMIC_Trace
  10
220.181
  20
142.786
  0
VERTEX
  8
MMIC_Trace
  10
220.686
  20
141.944
  0
VERTEX
  8
MMIC_Trace
  10
221.27
  20
141.156
  0
VERTEX
  8
MMIC_Trace
  10
221.929
  20
140.428
  0
VERTEX
  8
MMIC_Trace
  10
222.657
  20
139.769
  0
VERTEX
  8
MMIC_Trace
  10
223.445
  20
139.185
  0
VERTEX
  8
MMIC_Trace
  10
224.287
  20
138.68
  0
VERTEX
  8
MMIC_Trace
  10
225.174
  20
138.261
  0
VERTEX
  8
MMIC_Trace
  10
226.098
  20
137.93
  0
VERTEX
  8
MMIC_Trace
  10
227.05
  20
137.692
  0
VERTEX
  8
MMIC_Trace
  10
228.02
  20
137.548
  0
VERTEX
  8
MMIC_Trace
  10
229
  20
137.5
  0
VERTEX
  8
MMIC_Trace
  10
241.3
  20
137.5
  0
VERTEX
  8
MMIC_Trace
  10
241.3
  20
128.5
  0
VERTEX
  8
MMIC_Trace
  10
231.3
  20
128.5
  0
VERTEX
  8
MMIC_Trace
  10
230.32
  20
128.452
  0
VERTEX
  8
MMIC_Trace
  10
229.349
  20
128.308
  0
VERTEX
  8
MMIC_Trace
  10
228.397
  20
128.069
  0
VERTEX
  8
MMIC_Trace
  10
227.473
  20
127.739
  0
VERTEX
  8
MMIC_Trace
  10
226.586
  20
127.319
  0
VERTEX
  8
MMIC_Trace
  10
225.744
  20
126.815
  0
VERTEX
  8
MMIC_Trace
  10
224.956
  20
126.23
  0
VERTEX
  8
MMIC_Trace
  10
224.229
  20
125.571
  0
VERTEX
  8
MMIC_Trace
  10
223.57
  20
124.844
  0
VERTEX
  8
MMIC_Trace
  10
222.985
  20
124.056
  0
VERTEX
  8
MMIC_Trace
  10
222.481
  20
123.214
  0
VERTEX
  8
MMIC_Trace
  10
222.061
  20
122.327
  0
VERTEX
  8
MMIC_Trace
  10
221.731
  20
121.403
  0
VERTEX
  8
MMIC_Trace
  10
221.492
  20
120.451
  0
VERTEX
  8
MMIC_Trace
  10
221.348
  20
119.48
  0
VERTEX
  8
MMIC_Trace
  10
221.3
  20
118.5
  0
VERTEX
  8
MMIC_Trace
  10
221.3
  20
63.5
  0
VERTEX
  8
MMIC_Trace
  10
221.348
  20
62.52
  0
VERTEX
  8
MMIC_Trace
  10
221.492
  20
61.549
  0
VERTEX
  8
MMIC_Trace
  10
221.731
  20
60.597
  0
VERTEX
  8
MMIC_Trace
  10
222.061
  20
59.673
  0
VERTEX
  8
MMIC_Trace
  10
222.481
  20
58.786
  0
VERTEX
  8
MMIC_Trace
  10
222.985
  20
57.944
  0
VERTEX
  8
MMIC_Trace
  10
223.57
  20
57.156
  0
VERTEX
  8
MMIC_Trace
  10
224.229
  20
56.429
  0
VERTEX
  8
MMIC_Trace
  10
224.956
  20
55.77
  0
VERTEX
  8
MMIC_Trace
  10
225.744
  20
55.185
  0
VERTEX
  8
MMIC_Trace
  10
226.586
  20
54.681
  0
VERTEX
  8
MMIC_Trace
  10
227.473
  20
54.261
  0
VERTEX
  8
MMIC_Trace
  10
228.397
  20
53.931
  0
VERTEX
  8
MMIC_Trace
  10
229.349
  20
53.692
  0
VERTEX
  8
MMIC_Trace
  10
230.32
  20
53.548
  0
VERTEX
  8
MMIC_Trace
  10
231.3
  20
53.5
  0
VERTEX
  8
MMIC_Trace
  10
312.3
  20
53.5
  0
VERTEX
  8
MMIC_Trace
  10
313.28
  20
53.548
  0
VERTEX
  8
MMIC_Trace
  10
314.251
  20
53.692
  0
VERTEX
  8
MMIC_Trace
  10
315.203
  20
53.931
  0
VERTEX
  8
MMIC_Trace
  10
316.127
  20
54.261
  0
VERTEX
  8
MMIC_Trace
  10
317.014
  20
54.681
  0
VERTEX
  8
MMIC_Trace
  10
317.856
  20
55.185
  0
VERTEX
  8
MMIC_Trace
  10
318.644
  20
55.77
  0
VERTEX
  8
MMIC_Trace
  10
319.371
  20
56.429
  0
VERTEX
  8
MMIC_Trace
  10
320.03
  20
57.156
  0
VERTEX
  8
MMIC_Trace
  10
320.615
  20
57.944
  0
VERTEX
  8
MMIC_Trace
  10
321.119
  20
58.786
  0
VERTEX
  8
MMIC_Trace
  10
321.539
  20
59.673
  0
VERTEX
  8
MMIC_Trace
  10
321.869
  20
60.597
  0
VERTEX
  8
MMIC_Trace
  10
322.108
  20
61.549
  0
VERTEX
  8
MMIC_Trace
  10
322.252
  20
62.52
  0
VERTEX
  8
MMIC_Trace
  10
322.3
  20
63.5
  0
VERTEX
  8
MMIC_Trace
  10
322.3
  20
118.5
  0
VERTEX
  8
MMIC_Trace
  10
322.252
  20
119.48
  0
VERTEX
  8
MMIC_Trace
  10
322.108
  20
120.451
  0
VERTEX
  8
MMIC_Trace
  10
321.869
  20
121.403
  0
VERTEX
  8
MMIC_Trace
  10
321.539
  20
122.327
  0
VERTEX
  8
MMIC_Trace
  10
321.119
  20
123.214
  0
VERTEX
  8
MMIC_Trace
  10
320.615
  20
124.056
  0
VERTEX
  8
MMIC_Trace
  10
320.03
  20
124.844
  0
VERTEX
  8
MMIC_Trace
  10
319.371
  20
125.571
  0
VERTEX
  8
MMIC_Trace
  10
318.644
  20
126.23
  0
VERTEX
  8
MMIC_Trace
  10
317.856
  20
126.815
  0
VERTEX
  8
MMIC_Trace
  10
317.014
  20
127.319
  0
VERTEX
  8
MMIC_Trace
  10
316.127
  20
127.739
  0
VERTEX
  8
MMIC_Trace
  10
315.203
  20
128.069
  0
VERTEX
  8
MMIC_Trace
  10
314.251
  20
128.308
  0
VERTEX
  8
MMIC_Trace
  10
313.28
  20
128.452
  0
SEQEND
  0
POLYLINE
  8
MMIC_Trace
  70
1
  66
1
  0
VERTEX
  8
MMIC_Trace
  10
311.6
  20
-265.5
  0
VERTEX
  8
MMIC_Trace
  10
312.3
  20
-265.5
  0
VERTEX
  8
MMIC_Trace
  10
313.28
  20
-265.452
  0
VERTEX
  8
MMIC_Trace
  10
314.251
  20
-265.308
  0
VERTEX
  8
MMIC_Trace
  10
315.203
  20
-265.069
  0
VERTEX
  8
MMIC_Trace
  10
316.127
  20
-264.739
  0
VERTEX
  8
MMIC_Trace
  10
317.014
  20
-264.319
  0
VERTEX
  8
MMIC_Trace
  10
317.856
  20
-263.815
  0
VERTEX
  8
MMIC_Trace
  10
318.644
  20
-263.23
  0
VERTEX
  8
MMIC_Trace
  10
319.371
  20
-262.571
  0
VERTEX
  8
MMIC_Trace
  10
320.03
  20
-261.844
  0
VERTEX
  8
MMIC_Trace
  10
320.615
  20
-261.056
  0
VERTEX
  8
MMIC_Trace
  10
321.119
  20
-260.214
  0
VERTEX
  8
MMIC_Trace
  10
321.539
  20
-259.327
  0
VERTEX
  8
MMIC_Trace
  10
321.869
  20
-258.403
  0
VERTEX
  8
MMIC_Trace
  10
322.108
  20
-257.451
  0
VERTEX
  8
MMIC_Trace
  10
322.252
  20
-256.48
  0
VERTEX
  8
MMIC_Trace
  10
322.3
  20
-255.5
  0
VERTEX
  8
MMIC_Trace
  10
322.3
  20
-200.5
  0
VERTEX
  8
MMIC_Trace
  10
322.252
  20
-199.52
  0
VERTEX
  8
MMIC_Trace
  10
322.108
  20
-198.549
  0
VERTEX
  8
MMIC_Trace
  10
321.869
  20
-197.597
  0
VERTEX
  8
MMIC_Trace
  10
321.539
  20
-196.673
  0
VERTEX
  8
MMIC_Trace
  10
321.119
  20
-195.786
  0
VERTEX
  8
MMIC_Trace
  10
320.615
  20
-194.944
  0
VERTEX
  8
MMIC_Trace
  10
320.03
  20
-194.156
  0
VERTEX
  8
MMIC_Trace
  10
319.371
  20
-193.429
  0
VERTEX
  8
MMIC_Trace
  10
318.644
  20
-192.77
  0
VERTEX
  8
MMIC_Trace
  10
317.856
  20
-192.185
  0
VERTEX
  8
MMIC_Trace
  10
317.014
  20
-191.681
  0
VERTEX
  8
MMIC_Trace
  10
316.127
  20
-191.261
  0
VERTEX
  8
MMIC_Trace
  10
315.203
  20
-190.931
  0
VERTEX
  8
MMIC_Trace
  10
314.251
  20
-190.692
  0
VERTEX
  8
MMIC_Trace
  10
313.28
  20
-190.548
  0
VERTEX
  8
MMIC_Trace
  10
312.3
  20
-190.5
  0
VERTEX
  8
MMIC_Trace
  10
231.3
  20
-190.5
  0
VERTEX
  8
MMIC_Trace
  10
230.32
  20
-190.548
  0
VERTEX
  8
MMIC_Trace
  10
229.349
  20
-190.692
  0
VERTEX
  8
MMIC_Trace
  10
228.397
  20
-190.931
  0
VERTEX
  8
MMIC_Trace
  10
227.473
  20
-191.261
  0
VERTEX
  8
MMIC_Trace
  10
226.586
  20
-191.681
  0
VERTEX
  8
MMIC_Trace
  10
225.744
  20
-192.185
  0
VERTEX
  8
MMIC_Trace
  10
224.956
  20
-192.77
  0
VERTEX
  8
MMIC_Trace
  10
224.229
  20
-193.429
  0
VERTEX
  8
MMIC_Trace
  10
223.57
  20
-194.156
  0
VERTEX
  8
MMIC_Trace
  10
222.985
  20
-194.944
  0
VERTEX
  8
MMIC_Trace
  10
222.481
  20
-195.786
  0
VERTEX
  8
MMIC_Trace
  10
222.061
  20
-196.673
  0
VERTEX
  8
MMIC_Trace
  10
221.731
  20
-197.597
  0
VERTEX
  8
MMIC_Trace
  10
221.492
  20
-198.549
  0
VERTEX
  8
MMIC_Trace
  10
221.348
  20
-199.52
  0
VERTEX
  8
MMIC_Trace
  10
221.3
  20
-200.5
  0
VERTEX
  8
MMIC_Trace
  10
221.3
  20
-255.5
  0
VERTEX
  8
MMIC_Trace
  10
221.348
  20
-256.48
  0
VERTEX
  8
MMIC_Trace
  10
221.492
  20
-257.451
  0
VERTEX
  8
MMIC_Trace
  10
221.731
  20
-258.403
  0
VERTEX
  8
MMIC_Trace
  10
222.061
  20
-259.327
  0
VERTEX
  8
MMIC_Trace
  10
222.481
  20
-260.214
  0
VERTEX
  8
MMIC_Trace
  10
222.985
  20
-261.056
  0
VERTEX
  8
MMIC_Trace
  10
223.57
  20
-261.844
  0
VERTEX
  8
MMIC_Trace
  10
224.229
  20
-262.571
  0
VERTEX
  8
MMIC_Trace
  10
224.956
  20
-263.23
  0
VERTEX
  8
MMIC_Trace
  10
225.744
  20
-263.815
  0
VERTEX
  8
MMIC_Trace
  10
226.586
  20
-264.319
  0
VERTEX
  8
MMIC_Trace
  10
227.473
  20
-264.739
  0
VERTEX
  8
MMIC_Trace
  10
228.397
  20
-265.069
  0
VERTEX
  8
MMIC_Trace
  10
229.349
  20
-265.308
  0
VERTEX
  8
MMIC_Trace
  10
230.32
  20
-265.452
  0
VERTEX
  8
MMIC_Trace
  10
231.3
  20
-265.5
  0
VERTEX
  8
MMIC_Trace
  10
241.3
  20
-265.5
  0
VERTEX
  8
MMIC_Trace
  10
241.3
  20
-274.5
  0
VERTEX
  8
MMIC_Trace
  10
229
  20
-274.5
  0
VERTEX
  8
MMIC_Trace
  10
228.02
  20
-274.548
  0
VERTEX
  8
MMIC_Trace
  10
227.05
  20
-274.692
  0
VERTEX
  8
MMIC_Trace
  10
226.098
  20
-274.93
  0
VERTEX
  8
MMIC_Trace
  10
225.174
  20
-275.261
  0
VERTEX
  8
MMIC_Trace
  10
224.287
  20
-275.68
  0
VERTEX
  8
MMIC_Trace
  10
223.445
  20
-276.185
  0
VERTEX
  8
MMIC_Trace
  10
222.657
  20
-276.769
  0
VERTEX
  8
MMIC_Trace
  10
221.929
  20
-277.428
  0
VERTEX
  8
MMIC_Trace
  10
221.27
  20
-278.156
  0
VERTEX
  8
MMIC_Trace
  10
220.686
  20
-278.944
  0
VERTEX
  8
MMIC_Trace
  10
220.181
  20
-279.786
  0
VERTEX
  8
MMIC_Trace
  10
219.762
  20
-280.673
  0
VERTEX
  8
MMIC_Trace
  10
219.431
  20
-281.597
  0
VERTEX
  8
MMIC_Trace
  10
219.193
  20
-282.549
  0
VERTEX
  8
MMIC_Trace
  10
219.049
  20
-283.519
  0
VERTEX
  8
MMIC_Trace
  10
219
  20
-284.5
  0
VERTEX
  8
MMIC_Trace
  10
219
  20
-334.1
  0
VERTEX
  8
MMIC_Trace
  10
219.049
  20
-335.08
  0
VERTEX
  8
MMIC_Trace
  10
219.193
  20
-336.05
  0
VERTEX
  8
MMIC_Trace
  10
219.431
  20
-337.002
  0
VERTEX
  8
MMIC_Trace
  10
219.762
  20
-337.926
  0
VERTEX
  8
MMIC_Trace
  10
220.181
  20
-338.813
  0
VERTEX
  8
MMIC_Trace
  10
220.686
  20
-339.655
  0
VERTEX
  8
MMIC_Trace
  10
221.27
  20
-340.443
  0
VERTEX
  8
MMIC_Trace
  10
221.929
  20
-341.171
  0
VERTEX
  8
MMIC_Trace
  10
222.657
  20
-341.83
  0
VERTEX
  8
MMIC_Trace
  10
223.445
  20
-342.414
  0
VERTEX
  8
MMIC_Trace
  10
224.287
  20
-342.919
  0
VERTEX
  8
MMIC_Trace
  10
225.174
  20
-343.338
  0
VERTEX
  8
MMIC_Trace
  10
226.098
  20
-343.669
  0
VERTEX
  8
MMIC_Trace
  10
227.05
  20
-343.907
  0
VERTEX
  8
MMIC_Trace
  10
228.02
  20
-344.051
  0
VERTEX
  8
MMIC_Trace
  10
229
  20
-344.1
  0
VERTEX
  8
MMIC_Trace
  10
301.6
  20
-344.1
  0
VERTEX
  8
MMIC_Trace
  10
302.58
  20
-344.051
  0
VERTEX
  8
MMIC_Trace
  10
303.55
  20
-343.907
  0
VERTEX
  8
MMIC_Trace
  10
304.502
  20
-343.669
  0
VERTEX
  8
MMIC_Trace
  10
305.426
  20
-343.338
  0
VERTEX
  8
MMIC_Trace
  10
306.313
  20
-342.919
  0
VERTEX
  8
MMIC_Trace
  10
307.155
  20
-342.414
  0
VERTEX
  8
MMIC_Trace
  10
307.943
  20
-341.83
  0
VERTEX
  8
MMIC_Trace
  10
308.671
  20
-341.171
  0
VERTEX
  8
MMIC_Trace
  10
309.33
  20
-340.443
  0
VERTEX
  8
MMIC_Trace
  10
309.914
  20
-339.655
  0
VERTEX
  8
MMIC_Trace
  10
310.419
  20
-338.813
  0
VERTEX
  8
MMIC_Trace
  10
310.838
  20
-337.926
  0
VERTEX
  8
MMIC_Trace
  10
311.169
  20
-337.002
  0
VERTEX
  8
MMIC_Trace
  10
311.407
  20
-336.05
  0
VERTEX
  8
MMIC_Trace
  10
311.551
  20
-335.08
  0
VERTEX
  8
MMIC_Trace
  10
311.6
  20
-334.1
  0
SEQEND
  0
POLYLINE
  8
MMIC_BondPad
  70
1
  66
1
  0
VERTEX
  8
MMIC_BondPad
  10
221.731
  20
60.597
  0
VERTEX
  8
MMIC_BondPad
  10
222.061
  20
59.673
  0
VERTEX
  8
MMIC_BondPad
  10
222.481
  20
58.786
  0
VERTEX
  8
MMIC_BondPad
  10
222.985
  20
57.944
  0
VERTEX
  8
MMIC_BondPad
  10
223.57
  20
57.156
  0
VERTEX
  8
MMIC_BondPad
  10
224.229
  20
56.429
  0
VERTEX
  8
MMIC_BondPad
  10
224.956
  20
55.77
  0
VERTEX
  8
MMIC_BondPad
  10
225.744
  20
55.185
  0
VERTEX
  8
MMIC_BondPad
  10
226.586
  20
54.681
  0
VERTEX
  8
MMIC_BondPad
  10
227.473
  20
54.261
  0
VERTEX
  8
MMIC_BondPad
  10
228.397
  20
53.931
  0
VERTEX
  8
MMIC_BondPad
  10
229.349
  20
53.692
  0
VERTEX
  8
MMIC_BondPad
  10
230.32
  20
53.548
  0
VERTEX
  8
MMIC_BondPad
  10
231.3
  20
53.5
  0
VERTEX
  8
MMIC_BondPad
  10
312.3
  20
53.5
  0
VERTEX
  8
MMIC_BondPad
  10
313.28
  20
53.548
  0
VERTEX
  8
MMIC_BondPad
  10
314.251
  20
53.692
  0
VERTEX
  8
MMIC_BondPad
  10
315.203
  20
53.931
  0
VERTEX
  8
MMIC_BondPad
  10
316.127
  20
54.261
  0
VERTEX
  8
MMIC_BondPad
  10
317.014
  20
54.681
  0
VERTEX
  8
MMIC_BondPad
  10
317.856
  20
55.185
  0
VERTEX
  8
MMIC_BondPad
  10
318.644
  20
55.77
  0
VERTEX
  8
MMIC_BondPad
  10
319.371
  20
56.429
  0
VERTEX
  8
MMIC_BondPad
  10
320.03
  20
57.156
  0
VERTEX
  8
MMIC_BondPad
  10
320.615
  20
57.944
  0
VERTEX
  8
MMIC_BondPad
  10
321.119
  20
58.786
  0
VERTEX
  8
MMIC_BondPad
  10
321.539
  20
59.673
  0
VERTEX
  8
MMIC_BondPad
  10
321.869
  20
60.597
  0
VERTEX
  8
MMIC_BondPad
  10
322.108
  20
61.549
  0
VERTEX
  8
MMIC_BondPad
  10
322.252
  20
62.52
  0
VERTEX
  8
MMIC_BondPad
  10
322.3
  20
63.5
  0
VERTEX
  8
MMIC_BondPad
  10
322.3
  20
118.5
  0
VERTEX
  8
MMIC_BondPad
  10
322.252
  20
119.48
  0
VERTEX
  8
MMIC_BondPad
  10
322.108
  20
120.451
  0
VERTEX
  8
MMIC_BondPad
  10
321.869
  20
121.403
  0
VERTEX
  8
MMIC_BondPad
  10
321.539
  20
122.327
  0
VERTEX
  8
MMIC_BondPad
  10
321.119
  20
123.214
  0
VERTEX
  8
MMIC_BondPad
  10
320.615
  20
124.056
  0
VERTEX
  8
MMIC_BondPad
  10
320.03
  20
124.844
  0
VERTEX
  8
MMIC_BondPad
  10
319.371
  20
125.571
  0
VERTEX
  8
MMIC_BondPad
  10
318.644
  20
126.23
  0
VERTEX
  8
MMIC_BondPad
  10
317.856
  20
126.815
  0
VERTEX
  8
MMIC_BondPad
  10
317.014
  20
127.319
  0
VERTEX
  8
MMIC_BondPad
  10
316.127
  20
127.739
  0
VERTEX
  8
MMIC_BondPad
  10
315.203
  20
128.069
  0
VERTEX
  8
MMIC_BondPad
  10
314.251
  20
128.308
  0
VERTEX
  8
MMIC_BondPad
  10
313.28
  20
128.452
  0
VERTEX
  8
MMIC_BondPad
  10
312.3
  20
128.5
  0
VERTEX
  8
MMIC_BondPad
  10
231.3
  20
128.5
  0
VERTEX
  8
MMIC_BondPad
  10
230.32
  20
128.452
  0
VERTEX
  8
MMIC_BondPad
  10
229.349
  20
128.308
  0
VERTEX
  8
MMIC_BondPad
  10
228.397
  20
128.069
  0
VERTEX
  8
MMIC_BondPad
  10
227.473
  20
127.739
  0
VERTEX
  8
MMIC_BondPad
  10
226.586
  20
127.319
  0
VERTEX
  8
MMIC_BondPad
  10
225.744
  20
126.815
  0
VERTEX
  8
MMIC_BondPad
  10
224.956
  20
126.23
  0
VERTEX
  8
MMIC_BondPad
  10
224.229
  20
125.571
  0
VERTEX
  8
MMIC_BondPad
  10
223.57
  20
124.844
  0
VERTEX
  8
MMIC_BondPad
  10
222.985
  20
124.056
  0
VERTEX
  8
MMIC_BondPad
  10
222.481
  20
123.214
  0
VERTEX
  8
MMIC_BondPad
  10
222.061
  20
122.327
  0
VERTEX
  8
MMIC_BondPad
  10
221.731
  20
121.403
  0
VERTEX
  8
MMIC_BondPad
  10
221.492
  20
120.451
  0
VERTEX
  8
MMIC_BondPad
  10
221.348
  20
119.48
  0
VERTEX
  8
MMIC_BondPad
  10
221.3
  20
118.5
  0
VERTEX
  8
MMIC_BondPad
  10
221.3
  20
63.5
  0
VERTEX
  8
MMIC_BondPad
  10
221.348
  20
62.52
  0
VERTEX
  8
MMIC_BondPad
  10
221.492
  20
61.549
  0
SEQEND
  0
POLYLINE
  8
MMIC_BondPad
  70
1
  66
1
  0
VERTEX
  8
MMIC_BondPad
  10
-601.269
  20
60.597
  0
VERTEX
  8
MMIC_BondPad
  10
-600.939
  20
59.673
  0
VERTEX
  8
MMIC_BondPad
  10
-600.519
  20
58.786
  0
VERTEX
  8
MMIC_BondPad
  10
-600.015
  20
57.944
  0
VERTEX
  8
MMIC_BondPad
  10
-599.43
  20
57.156
  0
VERTEX
  8
MMIC_BondPad
  10
-598.771
  20
56.429
  0
VERTEX
  8
MMIC_BondPad
  10
-598.044
  20
55.77
  0
VERTEX
  8
MMIC_BondPad
  10
-597.256
  20
55.185
  0
VERTEX
  8
MMIC_BondPad
  10
-596.414
  20
54.681
  0
VERTEX
  8
MMIC_BondPad
  10
-595.527
  20
54.261
  0
VERTEX
  8
MMIC_BondPad
  10
-594.603
  20
53.931
  0
VERTEX
  8
MMIC_BondPad
  10
-593.651
  20
53.692
  0
VERTEX
  8
MMIC_BondPad
  10
-592.68
  20
53.548
  0
VERTEX
  8
MMIC_BondPad
  10
-591.7
  20
53.5
  0
VERTEX
  8
MMIC_BondPad
  10
-510.7
  20
53.5
  0
VERTEX
  8
MMIC_BondPad
  10
-509.72
  20
53.548
  0
VERTEX
  8
MMIC_BondPad
  10
-508.749
  20
53.692
  0
VERTEX
  8
MMIC_BondPad
  10
-507.797
  20
53.931
  0
VERTEX
  8
MMIC_BondPad
  10
-506.873
  20
54.261
  0
VERTEX
  8
MMIC_BondPad
  10
-505.986
  20
54.681
  0
VERTEX
  8
MMIC_BondPad
  10
-505.144
  20
55.185
  0
VERTEX
  8
MMIC_BondPad
  10
-504.356
  20
55.77
  0
VERTEX
  8
MMIC_BondPad
  10
-503.629
  20
56.429
  0
VERTEX
  8
MMIC_BondPad
  10
-502.97
  20
57.156
  0
VERTEX
  8
MMIC_BondPad
  10
-502.385
  20
57.944
  0
VERTEX
  8
MMIC_BondPad
  10
-501.881
  20
58.786
  0
VERTEX
  8
MMIC_BondPad
  10
-501.461
  20
59.673
  0
VERTEX
  8
MMIC_BondPad
  10
-501.131
  20
60.597
  0
VERTEX
  8
MMIC_BondPad
  10
-500.892
  20
61.549
  0
VERTEX
  8
MMIC_BondPad
  10
-500.748
  20
62.52
  0
VERTEX
  8
MMIC_BondPad
  10
-500.7
  20
63.5
  0
VERTEX
  8
MMIC_BondPad
  10
-500.7
  20
118.5
  0
VERTEX
  8
MMIC_BondPad
  10
-500.748
  20
119.48
  0
VERTEX
  8
MMIC_BondPad
  10
-500.892
  20
120.451
  0
VERTEX
  8
MMIC_BondPad
  10
-501.131
  20
121.403
  0
VERTEX
  8
MMIC_BondPad
  10
-501.461
  20
122.327
  0
VERTEX
  8
MMIC_BondPad
  10
-501.881
  20
123.214
  0
VERTEX
  8
MMIC_BondPad
  10
-502.385
  20
124.056
  0
VERTEX
  8
MMIC_BondPad
  10
-502.97
  20
124.844
  0
VERTEX
  8
MMIC_BondPad
  10
-503.629
  20
125.571
  0
VERTEX
  8
MMIC_BondPad
  10
-504.356
  20
126.23
  0
VERTEX
  8
MMIC_BondPad
  10
-505.144
  20
126.815
  0
VERTEX
  8
MMIC_BondPad
  10
-505.986
  20
127.319
  0
VERTEX
  8
MMIC_BondPad
  10
-506.873
  20
127.739
  0
VERTEX
  8
MMIC_BondPad
  10
-507.797
  20
128.069
  0
VERTEX
  8
MMIC_BondPad
  10
-508.749
  20
128.308
  0
VERTEX
  8
MMIC_BondPad
  10
-509.72
  20
128.452
  0
VERTEX
  8
MMIC_BondPad
  10
-510.7
  20
128.5
  0
VERTEX
  8
MMIC_BondPad
  10
-591.7
  20
128.5
  0
VERTEX
  8
MMIC_BondPad
  10
-592.68
  20
128.452
  0
VERTEX
  8
MMIC_BondPad
  10
-593.651
  20
128.308
  0
VERTEX
  8
MMIC_BondPad
  10
-594.603
  20
128.069
  0
VERTEX
  8
MMIC_BondPad
  10
-595.527
  20
127.739
  0
VERTEX
  8
MMIC_BondPad
  10
-596.414
  20
127.319
  0
VERTEX
  8
MMIC_BondPad
  10
-597.256
  20
126.815
  0
VERTEX
  8
MMIC_BondPad
  10
-598.044
  20
126.23
  0
VERTEX
  8
MMIC_BondPad
  10
-598.771
  20
125.571
  0
VERTEX
  8
MMIC_BondPad
  10
-599.43
  20
124.844
  0
VERTEX
  8
MMIC_BondPad
  10
-600.015
  20
124.056
  0
VERTEX
  8
MMIC_BondPad
  10
-600.519
  20
123.214
  0
VERTEX
  8
MMIC_BondPad
  10
-600.939
  20
122.327
  0
VERTEX
  8
MMIC_BondPad
  10
-601.269
  20
121.403
  0
VERTEX
  8
MMIC_BondPad
  10
-601.508
  20
120.451
  0
VERTEX
  8
MMIC_BondPad
  10
-601.652
  20
119.48
  0
VERTEX
  8
MMIC_BondPad
  10
-601.7
  20
118.5
  0
VERTEX
  8
MMIC_BondPad
  10
-601.7
  20
63.5
  0
VERTEX
  8
MMIC_BondPad
  10
-601.652
  20
62.52
  0
VERTEX
  8
MMIC_BondPad
  10
-601.508
  20
61.549
  0
SEQEND
  0
POLYLINE
  8
MMIC_BondPad
  70
1
  66
1
  0
VERTEX
  8
MMIC_BondPad
  10
-601.269
  20
-161.403
  0
VERTEX
  8
MMIC_BondPad
  10
-600.939
  20
-162.327
  0
VERTEX
  8
MMIC_BondPad
  10
-600.519
  20
-163.214
  0
VERTEX
  8
MMIC_BondPad
  10
-600.015
  20
-164.056
  0
VERTEX
  8
MMIC_BondPad
  10
-599.43
  20
-164.844
  0
VERTEX
  8
MMIC_BondPad
  10
-598.771
  20
-165.571
  0
VERTEX
  8
MMIC_BondPad
  10
-598.044
  20
-166.23
  0
VERTEX
  8
MMIC_BondPad
  10
-597.256
  20
-166.815
  0
VERTEX
  8
MMIC_BondPad
  10
-596.414
  20
-167.319
  0
VERTEX
  8
MMIC_BondPad
  10
-595.527
  20
-167.739
  0
VERTEX
  8
MMIC_BondPad
  10
-594.603
  20
-168.069
  0
VERTEX
  8
MMIC_BondPad
  10
-593.651
  20
-168.308
  0
VERTEX
  8
MMIC_BondPad
  10
-592.68
  20
-168.452
  0
VERTEX
  8
MMIC_BondPad
  10
-591.7
  20
-168.5
  0
VERTEX
  8
MMIC_BondPad
  10
-510.7
  20
-168.5
  0
VERTEX
  8
MMIC_BondPad
  10
-509.72
  20
-168.452
  0
VERTEX
  8
MMIC_BondPad
  10
-508.749
  20
-168.308
  0
VERTEX
  8
MMIC_BondPad
  10
-507.797
  20
-168.069
  0
VERTEX
  8
MMIC_BondPad
  10
-506.873
  20
-167.739
  0
VERTEX
  8
MMIC_BondPad
  10
-505.986
  20
-167.319
  0
VERTEX
  8
MMIC_BondPad
  10
-505.144
  20
-166.815
  0
VERTEX
  8
MMIC_BondPad
  10
-504.356
  20
-166.23
  0
VERTEX
  8
MMIC_BondPad
  10
-503.629
  20
-165.571
  0
VERTEX
  8
MMIC_BondPad
  10
-502.97
  20
-164.844
  0
VERTEX
  8
MMIC_BondPad
  10
-502.385
  20
-164.056
  0
VERTEX
  8
MMIC_BondPad
  10
-501.881
  20
-163.214
  0
VERTEX
  8
MMIC_BondPad
  10
-501.461
  20
-162.327
  0
VERTEX
  8
MMIC_BondPad
  10
-501.131
  20
-161.403
  0
VERTEX
  8
MMIC_BondPad
  10
-500.892
  20
-160.451
  0
VERTEX
  8
MMIC_BondPad
  10
-500.748
  20
-159.48
  0
VERTEX
  8
MMIC_BondPad
  10
-500.7
  20
-158.5
  0
VERTEX
  8
MMIC_BondPad
  10
-500.7
  20
21.5
  0
VERTEX
  8
MMIC_BondPad
  10
-500.748
  20
22.48
  0
VERTEX
  8
MMIC_BondPad
  10
-500.892
  20
23.451
  0
VERTEX
  8
MMIC_BondPad
  10
-501.131
  20
24.403
  0
VERTEX
  8
MMIC_BondPad
  10
-501.461
  20
25.327
  0
VERTEX
  8
MMIC_BondPad
  10
-501.881
  20
26.214
  0
VERTEX
  8
MMIC_BondPad
  10
-502.385
  20
27.056
  0
VERTEX
  8
MMIC_BondPad
  10
-502.97
  20
27.844
  0
VERTEX
  8
MMIC_BondPad
  10
-503.629
  20
28.571
  0
VERTEX
  8
MMIC_BondPad
  10
-504.356
  20
29.23
  0
VERTEX
  8
MMIC_BondPad
  10
-505.144
  20
29.815
  0
VERTEX
  8
MMIC_BondPad
  10
-505.986
  20
30.319
  0
VERTEX
  8
MMIC_BondPad
  10
-506.873
  20
30.739
  0
VERTEX
  8
MMIC_BondPad
  10
-507.797
  20
31.069
  0
VERTEX
  8
MMIC_BondPad
  10
-508.749
  20
31.308
  0
VERTEX
  8
MMIC_BondPad
  10
-509.72
  20
31.452
  0
VERTEX
  8
MMIC_BondPad
  10
-510.7
  20
31.5
  0
VERTEX
  8
MMIC_BondPad
  10
-591.7
  20
31.5
  0
VERTEX
  8
MMIC_BondPad
  10
-592.68
  20
31.452
  0
VERTEX
  8
MMIC_BondPad
  10
-593.651
  20
31.308
  0
VERTEX
  8
MMIC_BondPad
  10
-594.603
  20
31.069
  0
VERTEX
  8
MMIC_BondPad
  10
-595.527
  20
30.739
  0
VERTEX
  8
MMIC_BondPad
  10
-596.414
  20
30.319
  0
VERTEX
  8
MMIC_BondPad
  10
-597.256
  20
29.815
  0
VERTEX
  8
MMIC_BondPad
  10
-598.044
  20
29.23
  0
VERTEX
  8
MMIC_BondPad
  10
-598.771
  20
28.571
  0
VERTEX
  8
MMIC_BondPad
  10
-599.43
  20
27.844
  0
VERTEX
  8
MMIC_BondPad
  10
-600.015
  20
27.056
  0
VERTEX
  8
MMIC_BondPad
  10
-600.519
  20
26.214
  0
VERTEX
  8
MMIC_BondPad
  10
-600.939
  20
25.327
  0
VERTEX
  8
MMIC_BondPad
  10
-601.269
  20
24.403
  0
VERTEX
  8
MMIC_BondPad
  10
-601.508
  20
23.451
  0
VERTEX
  8
MMIC_BondPad
  10
-601.652
  20
22.48
  0
VERTEX
  8
MMIC_BondPad
  10
-601.7
  20
21.5
  0
VERTEX
  8
MMIC_BondPad
  10
-601.7
  20
-158.5
  0
VERTEX
  8
MMIC_BondPad
  10
-601.652
  20
-159.48
  0
VERTEX
  8
MMIC_BondPad
  10
-601.508
  20
-160.451
  0
SEQEND
  0
POLYLINE
  8
MMIC_BondPad
  70
1
  66
1
  0
VERTEX
  8
MMIC_BondPad
  10
221.731
  20
-161.403
  0
VERTEX
  8
MMIC_BondPad
  10
222.061
  20
-162.327
  0
VERTEX
  8
MMIC_BondPad
  10
222.481
  20
-163.214
  0
VERTEX
  8
MMIC_BondPad
  10
222.985
  20
-164.056
  0
VERTEX
  8
MMIC_BondPad
  10
223.57
  20
-164.844
  0
VERTEX
  8
MMIC_BondPad
  10
224.229
  20
-165.571
  0
VERTEX
  8
MMIC_BondPad
  10
224.956
  20
-166.23
  0
VERTEX
  8
MMIC_BondPad
  10
225.744
  20
-166.815
  0
VERTEX
  8
MMIC_BondPad
  10
226.586
  20
-167.319
  0
VERTEX
  8
MMIC_BondPad
  10
227.473
  20
-167.739
  0
VERTEX
  8
MMIC_BondPad
  10
228.397
  20
-168.069
  0
VERTEX
  8
MMIC_BondPad
  10
229.349
  20
-168.308
  0
VERTEX
  8
MMIC_BondPad
  10
230.32
  20
-168.452
  0
VERTEX
  8
MMIC_BondPad
  10
231.3
  20
-168.5
  0
VERTEX
  8
MMIC_BondPad
  10
312.3
  20
-168.5
  0
VERTEX
  8
MMIC_BondPad
  10
313.28
  20
-168.452
  0
VERTEX
  8
MMIC_BondPad
  10
314.251
  20
-168.308
  0
VERTEX
  8
MMIC_BondPad
  10
315.203
  20
-168.069
  0
VERTEX
  8
MMIC_BondPad
  10
316.127
  20
-167.739
  0
VERTEX
  8
MMIC_BondPad
  10
317.014
  20
-167.319
  0
VERTEX
  8
MMIC_BondPad
  10
317.856
  20
-166.815
  0
VERTEX
  8
MMIC_BondPad
  10
318.644
  20
-166.23
  0
VERTEX
  8
MMIC_BondPad
  10
319.371
  20
-165.571
  0
VERTEX
  8
MMIC_BondPad
  10
320.03
  20
-164.844
  0
VERTEX
  8
MMIC_BondPad
  10
320.615
  20
-164.056
  0
VERTEX
  8
MMIC_BondPad
  10
321.119
  20
-163.214
  0
VERTEX
  8
MMIC_BondPad
  10
321.539
  20
-162.327
  0
VERTEX
  8
MMIC_BondPad
  10
321.869
  20
-161.403
  0
VERTEX
  8
MMIC_BondPad
  10
322.108
  20
-160.451
  0
VERTEX
  8
MMIC_BondPad
  10
322.252
  20
-159.48
  0
VERTEX
  8
MMIC_BondPad
  10
322.3
  20
-158.5
  0
VERTEX
  8
MMIC_BondPad
  10
322.3
  20
21.5
  0
VERTEX
  8
MMIC_BondPad
  10
322.252
  20
22.48
  0
VERTEX
  8
MMIC_BondPad
  10
322.108
  20
23.451
  0
VERTEX
  8
MMIC_BondPad
  10
321.869
  20
24.403
  0
VERTEX
  8
MMIC_BondPad
  10
321.539
  20
25.327
  0
VERTEX
  8
MMIC_BondPad
  10
321.119
  20
26.214
  0
VERTEX
  8
MMIC_BondPad
  10
320.615
  20
27.056
  0
VERTEX
  8
MMIC_BondPad
  10
320.03
  20
27.844
  0
VERTEX
  8
MMIC_BondPad
  10
319.371
  20
28.571
  0
VERTEX
  8
MMIC_BondPad
  10
318.644
  20
29.23
  0
VERTEX
  8
MMIC_BondPad
  10
317.856
  20
29.815
  0
VERTEX
  8
MMIC_BondPad
  10
317.014
  20
30.319
  0
VERTEX
  8
MMIC_BondPad
  10
316.127
  20
30.739
  0
VERTEX
  8
MMIC_BondPad
  10
315.203
  20
31.069
  0
VERTEX
  8
MMIC_BondPad
  10
314.251
  20
31.308
  0
VERTEX
  8
MMIC_BondPad
  10
313.28
  20
31.452
  0
VERTEX
  8
MMIC_BondPad
  10
312.3
  20
31.5
  0
VERTEX
  8
MMIC_BondPad
  10
231.3
  20
31.5
  0
VERTEX
  8
MMIC_BondPad
  10
230.32
  20
31.452
  0
VERTEX
  8
MMIC_BondPad
  10
229.349
  20
31.308
  0
VERTEX
  8
MMIC_BondPad
  10
228.397
  20
31.069
  0
VERTEX
  8
MMIC_BondPad
  10
227.473
  20
30.739
  0
VERTEX
  8
MMIC_BondPad
  10
226.586
  20
30.319
  0
VERTEX
  8
MMIC_BondPad
  10
225.744
  20
29.815
  0
VERTEX
  8
MMIC_BondPad
  10
224.956
  20
29.23
  0
VERTEX
  8
MMIC_BondPad
  10
224.229
  20
28.571
  0
VERTEX
  8
MMIC_BondPad
  10
223.57
  20
27.844
  0
VERTEX
  8
MMIC_BondPad
  10
222.985
  20
27.056
  0
VERTEX
  8
MMIC_BondPad
  10
222.481
  20
26.214
  0
VERTEX
  8
MMIC_BondPad
  10
222.061
  20
25.327
  0
VERTEX
  8
MMIC_BondPad
  10
221.731
  20
24.403
  0
VERTEX
  8
MMIC_BondPad
  10
221.492
  20
23.451
  0
VERTEX
  8
MMIC_BondPad
  10
221.348
  20
22.48
  0
VERTEX
  8
MMIC_BondPad
  10
221.3
  20
21.5
  0
VERTEX
  8
MMIC_BondPad
  10
221.3
  20
-158.5
  0
VERTEX
  8
MMIC_BondPad
  10
221.348
  20
-159.48
  0
VERTEX
  8
MMIC_BondPad
  10
221.492
  20
-160.451
  0
SEQEND
  0
POLYLINE
  8
MMIC_BondPad
  70
1
  66
1
  0
VERTEX
  8
MMIC_BondPad
  10
-601.269
  20
-258.403
  0
VERTEX
  8
MMIC_BondPad
  10
-600.939
  20
-259.327
  0
VERTEX
  8
MMIC_BondPad
  10
-600.519
  20
-260.214
  0
VERTEX
  8
MMIC_BondPad
  10
-600.015
  20
-261.056
  0
VERTEX
  8
MMIC_BondPad
  10
-599.43
  20
-261.844
  0
VERTEX
  8
MMIC_BondPad
  10
-598.771
  20
-262.571
  0
VERTEX
  8
MMIC_BondPad
  10
-598.044
  20
-263.23
  0
VERTEX
  8
MMIC_BondPad
  10
-597.256
  20
-263.815
  0
VERTEX
  8
MMIC_BondPad
  10
-596.414
  20
-264.319
  0
VERTEX
  8
MMIC_BondPad
  10
-595.527
  20
-264.739
  0
VERTEX
  8
MMIC_BondPad
  10
-594.603
  20
-265.069
  0
VERTEX
  8
MMIC_BondPad
  10
-593.651
  20
-265.308
  0
VERTEX
  8
MMIC_BondPad
  10
-592.68
  20
-265.452
  0
VERTEX
  8
MMIC_BondPad
  10
-591.7
  20
-265.5
  0
VERTEX
  8
MMIC_BondPad
  10
-510.7
  20
-265.5
  0
VERTEX
  8
MMIC_BondPad
  10
-509.72
  20
-265.452
  0
VERTEX
  8
MMIC_BondPad
  10
-508.749
  20
-265.308
  0
VERTEX
  8
MMIC_BondPad
  10
-507.797
  20
-265.069
  0
VERTEX
  8
MMIC_BondPad
  10
-506.873
  20
-264.739
  0
VERTEX
  8
MMIC_BondPad
  10
-505.986
  20
-264.319
  0
VERTEX
  8
MMIC_BondPad
  10
-505.144
  20
-263.815
  0
VERTEX
  8
MMIC_BondPad
  10
-504.356
  20
-263.23
  0
VERTEX
  8
MMIC_BondPad
  10
-503.629
  20
-262.571
  0
VERTEX
  8
MMIC_BondPad
  10
-502.97
  20
-261.844
  0
VERTEX
  8
MMIC_BondPad
  10
-502.385
  20
-261.056
  0
VERTEX
  8
MMIC_BondPad
  10
-501.881
  20
-260.214
  0
VERTEX
  8
MMIC_BondPad
  10
-501.461
  20
-259.327
  0
VERTEX
  8
MMIC_BondPad
  10
-501.131
  20
-258.403
  0
VERTEX
  8
MMIC_BondPad
  10
-500.892
  20
-257.451
  0
VERTEX
  8
MMIC_BondPad
  10
-500.748
  20
-256.48
  0
VERTEX
  8
MMIC_BondPad
  10
-500.7
  20
-255.5
  0
VERTEX
  8
MMIC_BondPad
  10
-500.7
  20
-200.5
  0
VERTEX
  8
MMIC_BondPad
  10
-500.748
  20
-199.52
  0
VERTEX
  8
MMIC_BondPad
  10
-500.892
  20
-198.549
  0
VERTEX
  8
MMIC_BondPad
  10
-501.131
  20
-197.597
  0
VERTEX
  8
MMIC_BondPad
  10
-501.461
  20
-196.673
  0
VERTEX
  8
MMIC_BondPad
  10
-501.881
  20
-195.786
  0
VERTEX
  8
MMIC_BondPad
  10
-502.385
  20
-194.944
  0
VERTEX
  8
MMIC_BondPad
  10
-502.97
  20
-194.156
  0
VERTEX
  8
MMIC_BondPad
  10
-503.629
  20
-193.429
  0
VERTEX
  8
MMIC_BondPad
  10
-504.356
  20
-192.77
  0
VERTEX
  8
MMIC_BondPad
  10
-505.144
  20
-192.185
  0
VERTEX
  8
MMIC_BondPad
  10
-505.986
  20
-191.681
  0
VERTEX
  8
MMIC_BondPad
  10
-506.873
  20
-191.261
  0
VERTEX
  8
MMIC_BondPad
  10
-507.797
  20
-190.931
  0
VERTEX
  8
MMIC_BondPad
  10
-508.749
  20
-190.692
  0
VERTEX
  8
MMIC_BondPad
  10
-509.72
  20
-190.548
  0
VERTEX
  8
MMIC_BondPad
  10
-510.7
  20
-190.5
  0
VERTEX
  8
MMIC_BondPad
  10
-591.7
  20
-190.5
  0
VERTEX
  8
MMIC_BondPad
  10
-592.68
  20
-190.548
  0
VERTEX
  8
MMIC_BondPad
  10
-593.651
  20
-190.692
  0
VERTEX
  8
MMIC_BondPad
  10
-594.603
  20
-190.931
  0
VERTEX
  8
MMIC_BondPad
  10
-595.527
  20
-191.261
  0
VERTEX
  8
MMIC_BondPad
  10
-596.414
  20
-191.681
  0
VERTEX
  8
MMIC_BondPad
  10
-597.256
  20
-192.185
  0
VERTEX
  8
MMIC_BondPad
  10
-598.044
  20
-192.77
  0
VERTEX
  8
MMIC_BondPad
  10
-598.771
  20
-193.429
  0
VERTEX
  8
MMIC_BondPad
  10
-599.43
  20
-194.156
  0
VERTEX
  8
MMIC_BondPad
  10
-600.015
  20
-194.944
  0
VERTEX
  8
MMIC_BondPad
  10
-600.519
  20
-195.786
  0
VERTEX
  8
MMIC_BondPad
  10
-600.939
  20
-196.673
  0
VERTEX
  8
MMIC_BondPad
  10
-601.269
  20
-197.597
  0
VERTEX
  8
MMIC_BondPad
  10
-601.508
  20
-198.549
  0
VERTEX
  8
MMIC_BondPad
  10
-601.652
  20
-199.52
  0
VERTEX
  8
MMIC_BondPad
  10
-601.7
  20
-200.5
  0
VERTEX
  8
MMIC_BondPad
  10
-601.7
  20
-255.5
  0
VERTEX
  8
MMIC_BondPad
  10
-601.652
  20
-256.48
  0
VERTEX
  8
MMIC_BondPad
  10
-601.508
  20
-257.451
  0
SEQEND
  0
POLYLINE
  8
MMIC_BondPad
  70
1
  66
1
  0
VERTEX
  8
MMIC_BondPad
  10
221.731
  20
-258.403
  0
VERTEX
  8
MMIC_BondPad
  10
222.061
  20
-259.327
  0
VERTEX
  8
MMIC_BondPad
  10
222.481
  20
-260.214
  0
VERTEX
  8
MMIC_BondPad
  10
222.985
  20
-261.056
  0
VERTEX
  8
MMIC_BondPad
  10
223.57
  20
-261.844
  0
VERTEX
  8
MMIC_BondPad
  10
224.229
  20
-262.571
  0
VERTEX
  8
MMIC_BondPad
  10
224.956
  20
-263.23
  0
VERTEX
  8
MMIC_BondPad
  10
225.744
  20
-263.815
  0
VERTEX
  8
MMIC_BondPad
  10
226.586
  20
-264.319
  0
VERTEX
  8
MMIC_BondPad
  10
227.473
  20
-264.739
  0
VERTEX
  8
MMIC_BondPad
  10
228.397
  20
-265.069
  0
VERTEX
  8
MMIC_BondPad
  10
229.349
  20
-265.308
  0
VERTEX
  8
MMIC_BondPad
  10
230.32
  20
-265.452
  0
VERTEX
  8
MMIC_BondPad
  10
231.3
  20
-265.5
  0
VERTEX
  8
MMIC_BondPad
  10
312.3
  20
-265.5
  0
VERTEX
  8
MMIC_BondPad
  10
313.28
  20
-265.452
  0
VERTEX
  8
MMIC_BondPad
  10
314.251
  20
-265.308
  0
VERTEX
  8
MMIC_BondPad
  10
315.203
  20
-265.069
  0
VERTEX
  8
MMIC_BondPad
  10
316.127
  20
-264.739
  0
VERTEX
  8
MMIC_BondPad
  10
317.014
  20
-264.319
  0
VERTEX
  8
MMIC_BondPad
  10
317.856
  20
-263.815
  0
VERTEX
  8
MMIC_BondPad
  10
318.644
  20
-263.23
  0
VERTEX
  8
MMIC_BondPad
  10
319.371
  20
-262.571
  0
VERTEX
  8
MMIC_BondPad
  10
320.03
  20
-261.844
  0
VERTEX
  8
MMIC_BondPad
  10
320.615
  20
-261.056
  0
VERTEX
  8
MMIC_BondPad
  10
321.119
  20
-260.214
  0
VERTEX
  8
MMIC_BondPad
  10
321.539
  20
-259.327
  0
VERTEX
  8
MMIC_BondPad
  10
321.869
  20
-258.403
  0
VERTEX
  8
MMIC_BondPad
  10
322.108
  20
-257.451
  0
VERTEX
  8
MMIC_BondPad
  10
322.252
  20
-256.48
  0
VERTEX
  8
MMIC_BondPad
  10
322.3
  20
-255.5
  0
VERTEX
  8
MMIC_BondPad
  10
322.3
  20
-200.5
  0
VERTEX
  8
MMIC_BondPad
  10
322.252
  20
-199.52
  0
VERTEX
  8
MMIC_BondPad
  10
322.108
  20
-198.549
  0
VERTEX
  8
MMIC_BondPad
  10
321.869
  20
-197.597
  0
VERTEX
  8
MMIC_BondPad
  10
321.539
  20
-196.673
  0
VERTEX
  8
MMIC_BondPad
  10
321.119
  20
-195.786
  0
VERTEX
  8
MMIC_BondPad
  10
320.615
  20
-194.944
  0
VERTEX
  8
MMIC_BondPad
  10
320.03
  20
-194.156
  0
VERTEX
  8
MMIC_BondPad
  10
319.371
  20
-193.429
  0
VERTEX
  8
MMIC_BondPad
  10
318.644
  20
-192.77
  0
VERTEX
  8
MMIC_BondPad
  10
317.856
  20
-192.185
  0
VERTEX
  8
MMIC_BondPad
  10
317.014
  20
-191.681
  0
VERTEX
  8
MMIC_BondPad
  10
316.127
  20
-191.261
  0
VERTEX
  8
MMIC_BondPad
  10
315.203
  20
-190.931
  0
VERTEX
  8
MMIC_BondPad
  10
314.251
  20
-190.692
  0
VERTEX
  8
MMIC_BondPad
  10
313.28
  20
-190.548
  0
VERTEX
  8
MMIC_BondPad
  10
312.3
  20
-190.5
  0
VERTEX
  8
MMIC_BondPad
  10
231.3
  20
-190.5
  0
VERTEX
  8
MMIC_BondPad
  10
230.32
  20
-190.548
  0
VERTEX
  8
MMIC_BondPad
  10
229.349
  20
-190.692
  0
VERTEX
  8
MMIC_BondPad
  10
228.397
  20
-190.931
  0
VERTEX
  8
MMIC_BondPad
  10
227.473
  20
-191.261
  0
VERTEX
  8
MMIC_BondPad
  10
226.586
  20
-191.681
  0
VERTEX
  8
MMIC_BondPad
  10
225.744
  20
-192.185
  0
VERTEX
  8
MMIC_BondPad
  10
224.956
  20
-192.77
  0
VERTEX
  8
MMIC_BondPad
  10
224.229
  20
-193.429
  0
VERTEX
  8
MMIC_BondPad
  10
223.57
  20
-194.156
  0
VERTEX
  8
MMIC_BondPad
  10
222.985
  20
-194.944
  0
VERTEX
  8
MMIC_BondPad
  10
222.481
  20
-195.786
  0
VERTEX
  8
MMIC_BondPad
  10
222.061
  20
-196.673
  0
VERTEX
  8
MMIC_BondPad
  10
221.731
  20
-197.597
  0
VERTEX
  8
MMIC_BondPad
  10
221.492
  20
-198.549
  0
VERTEX
  8
MMIC_BondPad
  10
221.348
  20
-199.52
  0
VERTEX
  8
MMIC_BondPad
  10
221.3
  20
-200.5
  0
VERTEX
  8
MMIC_BondPad
  10
221.3
  20
-255.5
  0
VERTEX
  8
MMIC_BondPad
  10
221.348
  20
-256.48
  0
VERTEX
  8
MMIC_BondPad
  10
221.492
  20
-257.451
  0
SEQEND
  0
POLYLINE
  8
MMIC_OverCoat
  70
1
  66
1
  0
VERTEX
  8
MMIC_OverCoat
  10
309.703
  20
-259.569
  0
VERTEX
  8
MMIC_OverCoat
  10
310.627
  20
-259.239
  0
VERTEX
  8
MMIC_OverCoat
  10
311.514
  20
-258.819
  0
VERTEX
  8
MMIC_OverCoat
  10
312.356
  20
-258.315
  0
VERTEX
  8
MMIC_OverCoat
  10
313.144
  20
-257.73
  0
VERTEX
  8
MMIC_OverCoat
  10
313.871
  20
-257.071
  0
VERTEX
  8
MMIC_OverCoat
  10
314.53
  20
-256.344
  0
VERTEX
  8
MMIC_OverCoat
  10
315.115
  20
-255.556
  0
VERTEX
  8
MMIC_OverCoat
  10
315.619
  20
-254.714
  0
VERTEX
  8
MMIC_OverCoat
  10
316.039
  20
-253.827
  0
VERTEX
  8
MMIC_OverCoat
  10
316.369
  20
-252.903
  0
VERTEX
  8
MMIC_OverCoat
  10
316.608
  20
-251.951
  0
VERTEX
  8
MMIC_OverCoat
  10
316.752
  20
-250.98
  0
VERTEX
  8
MMIC_OverCoat
  10
316.8
  20
-250
  0
VERTEX
  8
MMIC_OverCoat
  10
316.8
  20
-206
  0
VERTEX
  8
MMIC_OverCoat
  10
316.752
  20
-205.02
  0
VERTEX
  8
MMIC_OverCoat
  10
316.608
  20
-204.049
  0
VERTEX
  8
MMIC_OverCoat
  10
316.369
  20
-203.097
  0
VERTEX
  8
MMIC_OverCoat
  10
316.039
  20
-202.173
  0
VERTEX
  8
MMIC_OverCoat
  10
315.619
  20
-201.286
  0
VERTEX
  8
MMIC_OverCoat
  10
315.115
  20
-200.444
  0
VERTEX
  8
MMIC_OverCoat
  10
314.53
  20
-199.656
  0
VERTEX
  8
MMIC_OverCoat
  10
313.871
  20
-198.929
  0
VERTEX
  8
MMIC_OverCoat
  10
313.144
  20
-198.27
  0
VERTEX
  8
MMIC_OverCoat
  10
312.356
  20
-197.685
  0
VERTEX
  8
MMIC_OverCoat
  10
311.514
  20
-197.181
  0
VERTEX
  8
MMIC_OverCoat
  10
310.627
  20
-196.761
  0
VERTEX
  8
MMIC_OverCoat
  10
309.703
  20
-196.431
  0
VERTEX
  8
MMIC_OverCoat
  10
308.751
  20
-196.192
  0
VERTEX
  8
MMIC_OverCoat
  10
307.78
  20
-196.048
  0
VERTEX
  8
MMIC_OverCoat
  10
306.8
  20
-196
  0
VERTEX
  8
MMIC_OverCoat
  10
236.8
  20
-196
  0
VERTEX
  8
MMIC_OverCoat
  10
235.82
  20
-196.048
  0
VERTEX
  8
MMIC_OverCoat
  10
234.849
  20
-196.192
  0
VERTEX
  8
MMIC_OverCoat
  10
233.897
  20
-196.431
  0
VERTEX
  8
MMIC_OverCoat
  10
232.973
  20
-196.761
  0
VERTEX
  8
MMIC_OverCoat
  10
232.086
  20
-197.181
  0
VERTEX
  8
MMIC_OverCoat
  10
231.244
  20
-197.685
  0
VERTEX
  8
MMIC_OverCoat
  10
230.456
  20
-198.27
  0
VERTEX
  8
MMIC_OverCoat
  10
229.729
  20
-198.929
  0
VERTEX
  8
MMIC_OverCoat
  10
229.07
  20
-199.656
  0
VERTEX
  8
MMIC_OverCoat
  10
228.485
  20
-200.444
  0
VERTEX
  8
MMIC_OverCoat
  10
227.981
  20
-201.286
  0
VERTEX
  8
MMIC_OverCoat
  10
227.561
  20
-202.173
  0
VERTEX
  8
MMIC_OverCoat
  10
227.231
  20
-203.097
  0
VERTEX
  8
MMIC_OverCoat
  10
226.992
  20
-204.049
  0
VERTEX
  8
MMIC_OverCoat
  10
226.848
  20
-205.02
  0
VERTEX
  8
MMIC_OverCoat
  10
226.8
  20
-206
  0
VERTEX
  8
MMIC_OverCoat
  10
226.8
  20
-250
  0
VERTEX
  8
MMIC_OverCoat
  10
226.848
  20
-250.98
  0
VERTEX
  8
MMIC_OverCoat
  10
226.992
  20
-251.951
  0
VERTEX
  8
MMIC_OverCoat
  10
227.231
  20
-252.903
  0
VERTEX
  8
MMIC_OverCoat
  10
227.561
  20
-253.827
  0
VERTEX
  8
MMIC_OverCoat
  10
227.981
  20
-254.714
  0
VERTEX
  8
MMIC_OverCoat
  10
228.485
  20
-255.556
  0
VERTEX
  8
MMIC_OverCoat
  10
229.07
  20
-256.344
  0
VERTEX
  8
MMIC_OverCoat
  10
229.729
  20
-257.071
  0
VERTEX
  8
MMIC_OverCoat
  10
230.456
  20
-257.73
  0
VERTEX
  8
MMIC_OverCoat
  10
231.244
  20
-258.315
  0
VERTEX
  8
MMIC_OverCoat
  10
232.086
  20
-258.819
  0
VERTEX
  8
MMIC_OverCoat
  10
232.973
  20
-259.239
  0
VERTEX
  8
MMIC_OverCoat
  10
233.897
  20
-259.569
  0
VERTEX
  8
MMIC_OverCoat
  10
234.849
  20
-259.808
  0
VERTEX
  8
MMIC_OverCoat
  10
235.82
  20
-259.952
  0
VERTEX
  8
MMIC_OverCoat
  10
236.8
  20
-260
  0
VERTEX
  8
MMIC_OverCoat
  10
306.8
  20
-260
  0
VERTEX
  8
MMIC_OverCoat
  10
307.78
  20
-259.952
  0
VERTEX
  8
MMIC_OverCoat
  10
308.751
  20
-259.808
  0
SEQEND
  0
POLYLINE
  8
MMIC_OverCoat
  70
1
  66
1
  0
VERTEX
  8
MMIC_OverCoat
  10
309.703
  20
-162.569
  0
VERTEX
  8
MMIC_OverCoat
  10
310.627
  20
-162.239
  0
VERTEX
  8
MMIC_OverCoat
  10
311.514
  20
-161.819
  0
VERTEX
  8
MMIC_OverCoat
  10
312.356
  20
-161.315
  0
VERTEX
  8
MMIC_OverCoat
  10
313.144
  20
-160.73
  0
VERTEX
  8
MMIC_OverCoat
  10
313.871
  20
-160.071
  0
VERTEX
  8
MMIC_OverCoat
  10
314.53
  20
-159.344
  0
VERTEX
  8
MMIC_OverCoat
  10
315.115
  20
-158.556
  0
VERTEX
  8
MMIC_OverCoat
  10
315.619
  20
-157.714
  0
VERTEX
  8
MMIC_OverCoat
  10
316.039
  20
-156.827
  0
VERTEX
  8
MMIC_OverCoat
  10
316.369
  20
-155.903
  0
VERTEX
  8
MMIC_OverCoat
  10
316.608
  20
-154.951
  0
VERTEX
  8
MMIC_OverCoat
  10
316.752
  20
-153.98
  0
VERTEX
  8
MMIC_OverCoat
  10
316.8
  20
-153
  0
VERTEX
  8
MMIC_OverCoat
  10
316.8
  20
16
  0
VERTEX
  8
MMIC_OverCoat
  10
316.752
  20
16.98
  0
VERTEX
  8
MMIC_OverCoat
  10
316.608
  20
17.951
  0
VERTEX
  8
MMIC_OverCoat
  10
316.369
  20
18.903
  0
VERTEX
  8
MMIC_OverCoat
  10
316.039
  20
19.827
  0
VERTEX
  8
MMIC_OverCoat
  10
315.619
  20
20.714
  0
VERTEX
  8
MMIC_OverCoat
  10
315.115
  20
21.556
  0
VERTEX
  8
MMIC_OverCoat
  10
314.53
  20
22.344
  0
VERTEX
  8
MMIC_OverCoat
  10
313.871
  20
23.071
  0
VERTEX
  8
MMIC_OverCoat
  10
313.144
  20
23.73
  0
VERTEX
  8
MMIC_OverCoat
  10
312.356
  20
24.315
  0
VERTEX
  8
MMIC_OverCoat
  10
311.514
  20
24.819
  0
VERTEX
  8
MMIC_OverCoat
  10
310.627
  20
25.239
  0
VERTEX
  8
MMIC_OverCoat
  10
309.703
  20
25.569
  0
VERTEX
  8
MMIC_OverCoat
  10
308.751
  20
25.808
  0
VERTEX
  8
MMIC_OverCoat
  10
307.78
  20
25.952
  0
VERTEX
  8
MMIC_OverCoat
  10
306.8
  20
26
  0
VERTEX
  8
MMIC_OverCoat
  10
236.8
  20
26
  0
VERTEX
  8
MMIC_OverCoat
  10
235.82
  20
25.952
  0
VERTEX
  8
MMIC_OverCoat
  10
234.849
  20
25.808
  0
VERTEX
  8
MMIC_OverCoat
  10
233.897
  20
25.569
  0
VERTEX
  8
MMIC_OverCoat
  10
232.973
  20
25.239
  0
VERTEX
  8
MMIC_OverCoat
  10
232.086
  20
24.819
  0
VERTEX
  8
MMIC_OverCoat
  10
231.244
  20
24.315
  0
VERTEX
  8
MMIC_OverCoat
  10
230.456
  20
23.73
  0
VERTEX
  8
MMIC_OverCoat
  10
229.729
  20
23.071
  0
VERTEX
  8
MMIC_OverCoat
  10
229.07
  20
22.344
  0
VERTEX
  8
MMIC_OverCoat
  10
228.485
  20
21.556
  0
VERTEX
  8
MMIC_OverCoat
  10
227.981
  20
20.714
  0
VERTEX
  8
MMIC_OverCoat
  10
227.561
  20
19.827
  0
VERTEX
  8
MMIC_OverCoat
  10
227.231
  20
18.903
  0
VERTEX
  8
MMIC_OverCoat
  10
226.992
  20
17.951
  0
VERTEX
  8
MMIC_OverCoat
  10
226.848
  20
16.98
  0
VERTEX
  8
MMIC_OverCoat
  10
226.8
  20
16
  0
VERTEX
  8
MMIC_OverCoat
  10
226.8
  20
-153
  0
VERTEX
  8
MMIC_OverCoat
  10
226.848
  20
-153.98
  0
VERTEX
  8
MMIC_OverCoat
  10
226.992
  20
-154.951
  0
VERTEX
  8
MMIC_OverCoat
  10
227.231
  20
-155.903
  0
VERTEX
  8
MMIC_OverCoat
  10
227.561
  20
-156.827
  0
VERTEX
  8
MMIC_OverCoat
  10
227.981
  20
-157.714
  0
VERTEX
  8
MMIC_OverCoat
  10
228.485
  20
-158.556
  0
VERTEX
  8
MMIC_OverCoat
  10
229.07
  20
-159.344
  0
VERTEX
  8
MMIC_OverCoat
  10
229.729
  20
-160.071
  0
VERTEX
  8
MMIC_OverCoat
  10
230.456
  20
-160.73
  0
VERTEX
  8
MMIC_OverCoat
  10
231.244
  20
-161.315
  0
VERTEX
  8
MMIC_OverCoat
  10
232.086
  20
-161.819
  0
VERTEX
  8
MMIC_OverCoat
  10
232.973
  20
-162.239
  0
VERTEX
  8
MMIC_OverCoat
  10
233.897
  20
-162.569
  0
VERTEX
  8
MMIC_OverCoat
  10
234.849
  20
-162.808
  0
VERTEX
  8
MMIC_OverCoat
  10
235.82
  20
-162.952
  0
VERTEX
  8
MMIC_OverCoat
  10
236.8
  20
-163
  0
VERTEX
  8
MMIC_OverCoat
  10
306.8
  20
-163
  0
VERTEX
  8
MMIC_OverCoat
  10
307.78
  20
-162.952
  0
VERTEX
  8
MMIC_OverCoat
  10
308.751
  20
-162.808
  0
SEQEND
  0
POLYLINE
  8
MMIC_OverCoat
  70
1
  66
1
  0
VERTEX
  8
MMIC_OverCoat
  10
-513.297
  20
-162.569
  0
VERTEX
  8
MMIC_OverCoat
  10
-512.373
  20
-162.239
  0
VERTEX
  8
MMIC_OverCoat
  10
-511.486
  20
-161.819
  0
VERTEX
  8
MMIC_OverCoat
  10
-510.644
  20
-161.315
  0
VERTEX
  8
MMIC_OverCoat
  10
-509.856
  20
-160.73
  0
VERTEX
  8
MMIC_OverCoat
  10
-509.129
  20
-160.071
  0
VERTEX
  8
MMIC_OverCoat
  10
-508.47
  20
-159.344
  0
VERTEX
  8
MMIC_OverCoat
  10
-507.885
  20
-158.556
  0
VERTEX
  8
MMIC_OverCoat
  10
-507.381
  20
-157.714
  0
VERTEX
  8
MMIC_OverCoat
  10
-506.961
  20
-156.827
  0
VERTEX
  8
MMIC_OverCoat
  10
-506.631
  20
-155.903
  0
VERTEX
  8
MMIC_OverCoat
  10
-506.392
  20
-154.951
  0
VERTEX
  8
MMIC_OverCoat
  10
-506.248
  20
-153.98
  0
VERTEX
  8
MMIC_OverCoat
  10
-506.2
  20
-153
  0
VERTEX
  8
MMIC_OverCoat
  10
-506.2
  20
16
  0
VERTEX
  8
MMIC_OverCoat
  10
-506.248
  20
16.98
  0
VERTEX
  8
MMIC_OverCoat
  10
-506.392
  20
17.951
  0
VERTEX
  8
MMIC_OverCoat
  10
-506.631
  20
18.903
  0
VERTEX
  8
MMIC_OverCoat
  10
-506.961
  20
19.827
  0
VERTEX
  8
MMIC_OverCoat
  10
-507.381
  20
20.714
  0
VERTEX
  8
MMIC_OverCoat
  10
-507.885
  20
21.556
  0
VERTEX
  8
MMIC_OverCoat
  10
-508.47
  20
22.344
  0
VERTEX
  8
MMIC_OverCoat
  10
-509.129
  20
23.071
  0
VERTEX
  8
MMIC_OverCoat
  10
-509.856
  20
23.73
  0
VERTEX
  8
MMIC_OverCoat
  10
-510.644
  20
24.315
  0
VERTEX
  8
MMIC_OverCoat
  10
-511.486
  20
24.819
  0
VERTEX
  8
MMIC_OverCoat
  10
-512.373
  20
25.239
  0
VERTEX
  8
MMIC_OverCoat
  10
-513.297
  20
25.569
  0
VERTEX
  8
MMIC_OverCoat
  10
-514.249
  20
25.808
  0
VERTEX
  8
MMIC_OverCoat
  10
-515.22
  20
25.952
  0
VERTEX
  8
MMIC_OverCoat
  10
-516.2
  20
26
  0
VERTEX
  8
MMIC_OverCoat
  10
-586.2
  20
26
  0
VERTEX
  8
MMIC_OverCoat
  10
-587.18
  20
25.952
  0
VERTEX
  8
MMIC_OverCoat
  10
-588.151
  20
25.808
  0
VERTEX
  8
MMIC_OverCoat
  10
-589.103
  20
25.569
  0
VERTEX
  8
MMIC_OverCoat
  10
-590.027
  20
25.239
  0
VERTEX
  8
MMIC_OverCoat
  10
-590.914
  20
24.819
  0
VERTEX
  8
MMIC_OverCoat
  10
-591.756
  20
24.315
  0
VERTEX
  8
MMIC_OverCoat
  10
-592.544
  20
23.73
  0
VERTEX
  8
MMIC_OverCoat
  10
-593.271
  20
23.071
  0
VERTEX
  8
MMIC_OverCoat
  10
-593.93
  20
22.344
  0
VERTEX
  8
MMIC_OverCoat
  10
-594.515
  20
21.556
  0
VERTEX
  8
MMIC_OverCoat
  10
-595.019
  20
20.714
  0
VERTEX
  8
MMIC_OverCoat
  10
-595.439
  20
19.827
  0
VERTEX
  8
MMIC_OverCoat
  10
-595.769
  20
18.903
  0
VERTEX
  8
MMIC_OverCoat
  10
-596.008
  20
17.951
  0
VERTEX
  8
MMIC_OverCoat
  10
-596.152
  20
16.98
  0
VERTEX
  8
MMIC_OverCoat
  10
-596.2
  20
16
  0
VERTEX
  8
MMIC_OverCoat
  10
-596.2
  20
-153
  0
VERTEX
  8
MMIC_OverCoat
  10
-596.152
  20
-153.98
  0
VERTEX
  8
MMIC_OverCoat
  10
-596.008
  20
-154.951
  0
VERTEX
  8
MMIC_OverCoat
  10
-595.769
  20
-155.903
  0
VERTEX
  8
MMIC_OverCoat
  10
-595.439
  20
-156.827
  0
VERTEX
  8
MMIC_OverCoat
  10
-595.019
  20
-157.714
  0
VERTEX
  8
MMIC_OverCoat
  10
-594.515
  20
-158.556
  0
VERTEX
  8
MMIC_OverCoat
  10
-593.93
  20
-159.344
  0
VERTEX
  8
MMIC_OverCoat
  10
-593.271
  20
-160.071
  0
VERTEX
  8
MMIC_OverCoat
  10
-592.544
  20
-160.73
  0
VERTEX
  8
MMIC_OverCoat
  10
-591.756
  20
-161.315
  0
VERTEX
  8
MMIC_OverCoat
  10
-590.914
  20
-161.819
  0
VERTEX
  8
MMIC_OverCoat
  10
-590.027
  20
-162.239
  0
VERTEX
  8
MMIC_OverCoat
  10
-589.103
  20
-162.569
  0
VERTEX
  8
MMIC_OverCoat
  10
-588.151
  20
-162.808
  0
VERTEX
  8
MMIC_OverCoat
  10
-587.18
  20
-162.952
  0
VERTEX
  8
MMIC_OverCoat
  10
-586.2
  20
-163
  0
VERTEX
  8
MMIC_OverCoat
  10
-516.2
  20
-163
  0
VERTEX
  8
MMIC_OverCoat
  10
-515.22
  20
-162.952
  0
VERTEX
  8
MMIC_OverCoat
  10
-514.249
  20
-162.808
  0
SEQEND
  0
POLYLINE
  8
MMIC_OverCoat
  70
1
  66
1
  0
VERTEX
  8
MMIC_OverCoat
  10
309.703
  20
59.431
  0
VERTEX
  8
MMIC_OverCoat
  10
310.627
  20
59.761
  0
VERTEX
  8
MMIC_OverCoat
  10
311.514
  20
60.181
  0
VERTEX
  8
MMIC_OverCoat
  10
312.356
  20
60.685
  0
VERTEX
  8
MMIC_OverCoat
  10
313.144
  20
61.27
  0
VERTEX
  8
MMIC_OverCoat
  10
313.871
  20
61.929
  0
VERTEX
  8
MMIC_OverCoat
  10
314.53
  20
62.656
  0
VERTEX
  8
MMIC_OverCoat
  10
315.115
  20
63.444
  0
VERTEX
  8
MMIC_OverCoat
  10
315.619
  20
64.286
  0
VERTEX
  8
MMIC_OverCoat
  10
316.039
  20
65.173
  0
VERTEX
  8
MMIC_OverCoat
  10
316.369
  20
66.097
  0
VERTEX
  8
MMIC_OverCoat
  10
316.608
  20
67.049
  0
VERTEX
  8
MMIC_OverCoat
  10
316.752
  20
68.02
  0
VERTEX
  8
MMIC_OverCoat
  10
316.8
  20
69
  0
VERTEX
  8
MMIC_OverCoat
  10
316.8
  20
113
  0
VERTEX
  8
MMIC_OverCoat
  10
316.752
  20
113.98
  0
VERTEX
  8
MMIC_OverCoat
  10
316.608
  20
114.951
  0
VERTEX
  8
MMIC_OverCoat
  10
316.369
  20
115.903
  0
VERTEX
  8
MMIC_OverCoat
  10
316.039
  20
116.827
  0
VERTEX
  8
MMIC_OverCoat
  10
315.619
  20
117.714
  0
VERTEX
  8
MMIC_OverCoat
  10
315.115
  20
118.556
  0
VERTEX
  8
MMIC_OverCoat
  10
314.53
  20
119.344
  0
VERTEX
  8
MMIC_OverCoat
  10
313.871
  20
120.071
  0
VERTEX
  8
MMIC_OverCoat
  10
313.144
  20
120.73
  0
VERTEX
  8
MMIC_OverCoat
  10
312.356
  20
121.315
  0
VERTEX
  8
MMIC_OverCoat
  10
311.514
  20
121.819
  0
VERTEX
  8
MMIC_OverCoat
  10
310.627
  20
122.239
  0
VERTEX
  8
MMIC_OverCoat
  10
309.703
  20
122.569
  0
VERTEX
  8
MMIC_OverCoat
  10
308.751
  20
122.808
  0
VERTEX
  8
MMIC_OverCoat
  10
307.78
  20
122.952
  0
VERTEX
  8
MMIC_OverCoat
  10
306.8
  20
123
  0
VERTEX
  8
MMIC_OverCoat
  10
236.8
  20
123
  0
VERTEX
  8
MMIC_OverCoat
  10
235.82
  20
122.952
  0
VERTEX
  8
MMIC_OverCoat
  10
234.849
  20
122.808
  0
VERTEX
  8
MMIC_OverCoat
  10
233.897
  20
122.569
  0
VERTEX
  8
MMIC_OverCoat
  10
232.973
  20
122.239
  0
VERTEX
  8
MMIC_OverCoat
  10
232.086
  20
121.819
  0
VERTEX
  8
MMIC_OverCoat
  10
231.244
  20
121.315
  0
VERTEX
  8
MMIC_OverCoat
  10
230.456
  20
120.73
  0
VERTEX
  8
MMIC_OverCoat
  10
229.729
  20
120.071
  0
VERTEX
  8
MMIC_OverCoat
  10
229.07
  20
119.344
  0
VERTEX
  8
MMIC_OverCoat
  10
228.485
  20
118.556
  0
VERTEX
  8
MMIC_OverCoat
  10
227.981
  20
117.714
  0
VERTEX
  8
MMIC_OverCoat
  10
227.561
  20
116.827
  0
VERTEX
  8
MMIC_OverCoat
  10
227.231
  20
115.903
  0
VERTEX
  8
MMIC_OverCoat
  10
226.992
  20
114.951
  0
VERTEX
  8
MMIC_OverCoat
  10
226.848
  20
113.98
  0
VERTEX
  8
MMIC_OverCoat
  10
226.8
  20
113
  0
VERTEX
  8
MMIC_OverCoat
  10
226.8
  20
69
  0
VERTEX
  8
MMIC_OverCoat
  10
226.848
  20
68.02
  0
VERTEX
  8
MMIC_OverCoat
  10
226.992
  20
67.049
  0
VERTEX
  8
MMIC_OverCoat
  10
227.231
  20
66.097
  0
VERTEX
  8
MMIC_OverCoat
  10
227.561
  20
65.173
  0
VERTEX
  8
MMIC_OverCoat
  10
227.981
  20
64.286
  0
VERTEX
  8
MMIC_OverCoat
  10
228.485
  20
63.444
  0
VERTEX
  8
MMIC_OverCoat
  10
229.07
  20
62.656
  0
VERTEX
  8
MMIC_OverCoat
  10
229.729
  20
61.929
  0
VERTEX
  8
MMIC_OverCoat
  10
230.456
  20
61.27
  0
VERTEX
  8
MMIC_OverCoat
  10
231.244
  20
60.685
  0
VERTEX
  8
MMIC_OverCoat
  10
232.086
  20
60.181
  0
VERTEX
  8
MMIC_OverCoat
  10
232.973
  20
59.761
  0
VERTEX
  8
MMIC_OverCoat
  10
233.897
  20
59.431
  0
VERTEX
  8
MMIC_OverCoat
  10
234.849
  20
59.192
  0
VERTEX
  8
MMIC_OverCoat
  10
235.82
  20
59.048
  0
VERTEX
  8
MMIC_OverCoat
  10
236.8
  20
59
  0
VERTEX
  8
MMIC_OverCoat
  10
306.8
  20
59
  0
VERTEX
  8
MMIC_OverCoat
  10
307.78
  20
59.048
  0
VERTEX
  8
MMIC_OverCoat
  10
308.751
  20
59.192
  0
SEQEND
  0
POLYLINE
  8
MMIC_OverCoat
  70
1
  66
1
  0
VERTEX
  8
MMIC_OverCoat
  10
-513.297
  20
-259.569
  0
VERTEX
  8
MMIC_OverCoat
  10
-512.373
  20
-259.239
  0
VERTEX
  8
MMIC_OverCoat
  10
-511.486
  20
-258.819
  0
VERTEX
  8
MMIC_OverCoat
  10
-510.644
  20
-258.315
  0
VERTEX
  8
MMIC_OverCoat
  10
-509.856
  20
-257.73
  0
VERTEX
  8
MMIC_OverCoat
  10
-509.129
  20
-257.071
  0
VERTEX
  8
MMIC_OverCoat
  10
-508.47
  20
-256.344
  0
VERTEX
  8
MMIC_OverCoat
  10
-507.885
  20
-255.556
  0
VERTEX
  8
MMIC_OverCoat
  10
-507.381
  20
-254.714
  0
VERTEX
  8
MMIC_OverCoat
  10
-506.961
  20
-253.827
  0
VERTEX
  8
MMIC_OverCoat
  10
-506.631
  20
-252.903
  0
VERTEX
  8
MMIC_OverCoat
  10
-506.392
  20
-251.951
  0
VERTEX
  8
MMIC_OverCoat
  10
-506.248
  20
-250.98
  0
VERTEX
  8
MMIC_OverCoat
  10
-506.2
  20
-250
  0
VERTEX
  8
MMIC_OverCoat
  10
-506.2
  20
-206
  0
VERTEX
  8
MMIC_OverCoat
  10
-506.248
  20
-205.02
  0
VERTEX
  8
MMIC_OverCoat
  10
-506.392
  20
-204.049
  0
VERTEX
  8
MMIC_OverCoat
  10
-506.631
  20
-203.097
  0
VERTEX
  8
MMIC_OverCoat
  10
-506.961
  20
-202.173
  0
VERTEX
  8
MMIC_OverCoat
  10
-507.381
  20
-201.286
  0
VERTEX
  8
MMIC_OverCoat
  10
-507.885
  20
-200.444
  0
VERTEX
  8
MMIC_OverCoat
  10
-508.47
  20
-199.656
  0
VERTEX
  8
MMIC_OverCoat
  10
-509.129
  20
-198.929
  0
VERTEX
  8
MMIC_OverCoat
  10
-509.856
  20
-198.27
  0
VERTEX
  8
MMIC_OverCoat
  10
-510.644
  20
-197.685
  0
VERTEX
  8
MMIC_OverCoat
  10
-511.486
  20
-197.181
  0
VERTEX
  8
MMIC_OverCoat
  10
-512.373
  20
-196.761
  0
VERTEX
  8
MMIC_OverCoat
  10
-513.297
  20
-196.431
  0
VERTEX
  8
MMIC_OverCoat
  10
-514.249
  20
-196.192
  0
VERTEX
  8
MMIC_OverCoat
  10
-515.22
  20
-196.048
  0
VERTEX
  8
MMIC_OverCoat
  10
-516.2
  20
-196
  0
VERTEX
  8
MMIC_OverCoat
  10
-586.2
  20
-196
  0
VERTEX
  8
MMIC_OverCoat
  10
-587.18
  20
-196.048
  0
VERTEX
  8
MMIC_OverCoat
  10
-588.151
  20
-196.192
  0
VERTEX
  8
MMIC_OverCoat
  10
-589.103
  20
-196.431
  0
VERTEX
  8
MMIC_OverCoat
  10
-590.027
  20
-196.761
  0
VERTEX
  8
MMIC_OverCoat
  10
-590.914
  20
-197.181
  0
VERTEX
  8
MMIC_OverCoat
  10
-591.756
  20
-197.685
  0
VERTEX
  8
MMIC_OverCoat
  10
-592.544
  20
-198.27
  0
VERTEX
  8
MMIC_OverCoat
  10
-593.271
  20
-198.929
  0
VERTEX
  8
MMIC_OverCoat
  10
-593.93
  20
-199.656
  0
VERTEX
  8
MMIC_OverCoat
  10
-594.515
  20
-200.444
  0
VERTEX
  8
MMIC_OverCoat
  10
-595.019
  20
-201.286
  0
VERTEX
  8
MMIC_OverCoat
  10
-595.439
  20
-202.173
  0
VERTEX
  8
MMIC_OverCoat
  10
-595.769
  20
-203.097
  0
VERTEX
  8
MMIC_OverCoat
  10
-596.008
  20
-204.049
  0
VERTEX
  8
MMIC_OverCoat
  10
-596.152
  20
-205.02
  0
VERTEX
  8
MMIC_OverCoat
  10
-596.2
  20
-206
  0
VERTEX
  8
MMIC_OverCoat
  10
-596.2
  20
-250
  0
VERTEX
  8
MMIC_OverCoat
  10
-596.152
  20
-250.98
  0
VERTEX
  8
MMIC_OverCoat
  10
-596.008
  20
-251.951
  0
VERTEX
  8
MMIC_OverCoat
  10
-595.769
  20
-252.903
  0
VERTEX
  8
MMIC_OverCoat
  10
-595.439
  20
-253.827
  0
VERTEX
  8
MMIC_OverCoat
  10
-595.019
  20
-254.714
  0
VERTEX
  8
MMIC_OverCoat
  10
-594.515
  20
-255.556
  0
VERTEX
  8
MMIC_OverCoat
  10
-593.93
  20
-256.344
  0
VERTEX
  8
MMIC_OverCoat
  10
-593.271
  20
-257.071
  0
VERTEX
  8
MMIC_OverCoat
  10
-592.544
  20
-257.73
  0
VERTEX
  8
MMIC_OverCoat
  10
-591.756
  20
-258.315
  0
VERTEX
  8
MMIC_OverCoat
  10
-590.914
  20
-258.819
  0
VERTEX
  8
MMIC_OverCoat
  10
-590.027
  20
-259.239
  0
VERTEX
  8
MMIC_OverCoat
  10
-589.103
  20
-259.569
  0
VERTEX
  8
MMIC_OverCoat
  10
-588.151
  20
-259.808
  0
VERTEX
  8
MMIC_OverCoat
  10
-587.18
  20
-259.952
  0
VERTEX
  8
MMIC_OverCoat
  10
-586.2
  20
-260
  0
VERTEX
  8
MMIC_OverCoat
  10
-516.2
  20
-260
  0
VERTEX
  8
MMIC_OverCoat
  10
-515.22
  20
-259.952
  0
VERTEX
  8
MMIC_OverCoat
  10
-514.249
  20
-259.808
  0
SEQEND
  0
POLYLINE
  8
MMIC_OverCoat
  70
1
  66
1
  0
VERTEX
  8
MMIC_OverCoat
  10
-513.297
  20
59.431
  0
VERTEX
  8
MMIC_OverCoat
  10
-512.373
  20
59.761
  0
VERTEX
  8
MMIC_OverCoat
  10
-511.486
  20
60.181
  0
VERTEX
  8
MMIC_OverCoat
  10
-510.644
  20
60.685
  0
VERTEX
  8
MMIC_OverCoat
  10
-509.856
  20
61.27
  0
VERTEX
  8
MMIC_OverCoat
  10
-509.129
  20
61.929
  0
VERTEX
  8
MMIC_OverCoat
  10
-508.47
  20
62.656
  0
VERTEX
  8
MMIC_OverCoat
  10
-507.885
  20
63.444
  0
VERTEX
  8
MMIC_OverCoat
  10
-507.381
  20
64.286
  0
VERTEX
  8
MMIC_OverCoat
  10
-506.961
  20
65.173
  0
VERTEX
  8
MMIC_OverCoat
  10
-506.631
  20
66.097
  0
VERTEX
  8
MMIC_OverCoat
  10
-506.392
  20
67.049
  0
VERTEX
  8
MMIC_OverCoat
  10
-506.248
  20
68.02
  0
VERTEX
  8
MMIC_OverCoat
  10
-506.2
  20
69
  0
VERTEX
  8
MMIC_OverCoat
  10
-506.2
  20
113
  0
VERTEX
  8
MMIC_OverCoat
  10
-506.248
  20
113.98
  0
VERTEX
  8
MMIC_OverCoat
  10
-506.392
  20
114.951
  0
VERTEX
  8
MMIC_OverCoat
  10
-506.631
  20
115.903
  0
VERTEX
  8
MMIC_OverCoat
  10
-506.961
  20
116.827
  0
VERTEX
  8
MMIC_OverCoat
  10
-507.381
  20
117.714
  0
VERTEX
  8
MMIC_OverCoat
  10
-507.885
  20
118.556
  0
VERTEX
  8
MMIC_OverCoat
  10
-508.47
  20
119.344
  0
VERTEX
  8
MMIC_OverCoat
  10
-509.129
  20
120.071
  0
VERTEX
  8
MMIC_OverCoat
  10
-509.856
  20
120.73
  0
VERTEX
  8
MMIC_OverCoat
  10
-510.644
  20
121.315
  0
VERTEX
  8
MMIC_OverCoat
  10
-511.486
  20
121.819
  0
VERTEX
  8
MMIC_OverCoat
  10
-512.373
  20
122.239
  0
VERTEX
  8
MMIC_OverCoat
  10
-513.297
  20
122.569
  0
VERTEX
  8
MMIC_OverCoat
  10
-514.249
  20
122.808
  0
VERTEX
  8
MMIC_OverCoat
  10
-515.22
  20
122.952
  0
VERTEX
  8
MMIC_OverCoat
  10
-516.2
  20
123
  0
VERTEX
  8
MMIC_OverCoat
  10
-586.2
  20
123
  0
VERTEX
  8
MMIC_OverCoat
  10
-587.18
  20
122.952
  0
VERTEX
  8
MMIC_OverCoat
  10
-588.151
  20
122.808
  0
VERTEX
  8
MMIC_OverCoat
  10
-589.103
  20
122.569
  0
VERTEX
  8
MMIC_OverCoat
  10
-590.027
  20
122.239
  0
VERTEX
  8
MMIC_OverCoat
  10
-590.914
  20
121.819
  0
VERTEX
  8
MMIC_OverCoat
  10
-591.756
  20
121.315
  0
VERTEX
  8
MMIC_OverCoat
  10
-592.544
  20
120.73
  0
VERTEX
  8
MMIC_OverCoat
  10
-593.271
  20
120.071
  0
VERTEX
  8
MMIC_OverCoat
  10
-593.93
  20
119.344
  0
VERTEX
  8
MMIC_OverCoat
  10
-594.515
  20
118.556
  0
VERTEX
  8
MMIC_OverCoat
  10
-595.019
  20
117.714
  0
VERTEX
  8
MMIC_OverCoat
  10
-595.439
  20
116.827
  0
VERTEX
  8
MMIC_OverCoat
  10
-595.769
  20
115.903
  0
VERTEX
  8
MMIC_OverCoat
  10
-596.008
  20
114.951
  0
VERTEX
  8
MMIC_OverCoat
  10
-596.152
  20
113.98
  0
VERTEX
  8
MMIC_OverCoat
  10
-596.2
  20
113
  0
VERTEX
  8
MMIC_OverCoat
  10
-596.2
  20
69
  0
VERTEX
  8
MMIC_OverCoat
  10
-596.152
  20
68.02
  0
VERTEX
  8
MMIC_OverCoat
  10
-596.008
  20
67.049
  0
VERTEX
  8
MMIC_OverCoat
  10
-595.769
  20
66.097
  0
VERTEX
  8
MMIC_OverCoat
  10
-595.439
  20
65.173
  0
VERTEX
  8
MMIC_OverCoat
  10
-595.019
  20
64.286
  0
VERTEX
  8
MMIC_OverCoat
  10
-594.515
  20
63.444
  0
VERTEX
  8
MMIC_OverCoat
  10
-593.93
  20
62.656
  0
VERTEX
  8
MMIC_OverCoat
  10
-593.271
  20
61.929
  0
VERTEX
  8
MMIC_OverCoat
  10
-592.544
  20
61.27
  0
VERTEX
  8
MMIC_OverCoat
  10
-591.756
  20
60.685
  0
VERTEX
  8
MMIC_OverCoat
  10
-590.914
  20
60.181
  0
VERTEX
  8
MMIC_OverCoat
  10
-590.027
  20
59.761
  0
VERTEX
  8
MMIC_OverCoat
  10
-589.103
  20
59.431
  0
VERTEX
  8
MMIC_OverCoat
  10
-588.151
  20
59.192
  0
VERTEX
  8
MMIC_OverCoat
  10
-587.18
  20
59.048
  0
VERTEX
  8
MMIC_OverCoat
  10
-586.2
  20
59
  0
VERTEX
  8
MMIC_OverCoat
  10
-516.2
  20
59
  0
VERTEX
  8
MMIC_OverCoat
  10
-515.22
  20
59.048
  0
VERTEX
  8
MMIC_OverCoat
  10
-514.249
  20
59.192
  0
SEQEND
  0
POLYLINE
  8
MMIC_Die
  70
1
  66
1
  0
VERTEX
  8
MMIC_Die
  10
-639.7
  20
348.6
  0
VERTEX
  8
MMIC_Die
  10
-639.7
  20
-401.4
  0
VERTEX
  8
MMIC_Die
  10
360.3
  20
-401.4
  0
VERTEX
  8
MMIC_Die
  10
360.3
  20
348.6
  0
SEQEND
  0
ENDSEC
  0
EOF
