  0
SECTION
  2
HEADER
  9
$ACADVER
  1
AC1009
  9
$INSUNITS
  70
13
  9
$EXTMIN
  10
0
  20
0
  9
$EXTMAX
  10
2000
  20
2500
  0
ENDSEC
  0
SECTION
  2
TABLES
  0
TABLE
  2
LTYPE
  70
1
  0
LTYPE
  2
CONTINUOUS
  70
64
  3
Solid line
  72
65
  73
0
  40
0
  0
ENDTAB
  0
TABLE
  2
LAYER
  70
6
  0
LAYER
  2
MMIC_Label
  70
0
  62
9
  6
CONTINUOUS
  0
LAYER
  2
MMIC_Trace
  70
0
  62
3
  6
CONTINUOUS
  0
LAYER
  2
MMIC_BondPad
  70
0
  62
5
  6
CONTINUOUS
  0
LAYER
  2
MMIC_OverCoat
  70
0
  62
1
  6
CONTINUOUS
  0
LAYER
  2
MMIC_Via
  70
0
  62
208
  6
CONTINUOUS
  0
LAYER
  2
MMIC_Die
  70
0
  62
75
  6
CONTINUOUS
  0
ENDTAB
  0
ENDSEC
  0
SECTION
  2
BLOCKS
  0
ENDSEC
  0
SECTION
  2
ENTITIES
  0
POLYLINE
  8
MMIC_Label
  70
1
  66
1
  0
VERTEX
  8
MMIC_Label
  10
1693.2
  20
2038.8
  0
VERTEX
  8
MMIC_Label
  10
1708.2
  20
2038.8
  0
VERTEX
  8
MMIC_Label
  10
1708.2
  20
2023.8
  0
VERTEX
  8
MMIC_Label
  10
1693.2
  20
2023.8
  0
SEQEND
  0
POLYLINE
  8
MMIC_Label
  70
1
  66
1
  0
VERTEX
  8
MMIC_Label
  10
1621.482
  20
1960.641
  0
VERTEX
  8
MMIC_Label
  10
1614.917
  20
1960.641
  0
VERTEX
  8
MMIC_Label
  10
1615.133
  20
1961.162
  0
VERTEX
  8
MMIC_Label
  10
1615.968
  20
1962.462
  0
VERTEX
  8
MMIC_Label
  10
1617.458
  20
1964.309
  0
VERTEX
  8
MMIC_Label
  10
1619.247
  20
1966.543
  0
VERTEX
  8
MMIC_Label
  10
1620.019
  20
1967.827
  0
VERTEX
  8
MMIC_Label
  10
1620.793
  20
1969.115
  0
VERTEX
  8
MMIC_Label
  10
1621.128
  20
1970.283
  0
VERTEX
  8
MMIC_Label
  10
1621.464
  20
1971.45
  0
VERTEX
  8
MMIC_Label
  10
1621.464
  20
1975.043
  0
VERTEX
  8
MMIC_Label
  10
1620.314
  20
1976.658
  0
VERTEX
  8
MMIC_Label
  10
1619.152
  20
1978.29
  0
VERTEX
  8
MMIC_Label
  10
1615.187
  20
1978.29
  0
VERTEX
  8
MMIC_Label
  10
1612.856
  20
1975.279
  0
VERTEX
  8
MMIC_Label
  10
1612.675
  20
1972.344
  0
VERTEX
  8
MMIC_Label
  10
1614.566
  20
1972.057
  0
VERTEX
  8
MMIC_Label
  10
1614.574
  20
1972.064
  0
VERTEX
  8
MMIC_Label
  10
1614.582
  20
1972.07
  0
VERTEX
  8
MMIC_Label
  10
1614.591
  20
1974.015
  0
VERTEX
  8
MMIC_Label
  10
1615.291
  20
1975.05
  0
VERTEX
  8
MMIC_Label
  10
1615.682
  20
1975.626
  0
VERTEX
  8
MMIC_Label
  10
1618.513
  20
1975.626
  0
VERTEX
  8
MMIC_Label
  10
1619.222
  20
1974.62
  0
VERTEX
  8
MMIC_Label
  10
1619.222
  20
1970.668
  0
VERTEX
  8
MMIC_Label
  10
1618.032
  20
1968.272
  0
VERTEX
  8
MMIC_Label
  10
1615.841
  20
1965.618
  0
VERTEX
  8
MMIC_Label
  10
1615.84
  20
1965.618
  0
VERTEX
  8
MMIC_Label
  10
1614.418
  20
1963.899
  0
VERTEX
  8
MMIC_Label
  10
1613.663
  20
1962.588
  0
VERTEX
  8
MMIC_Label
  10
1612.906
  20
1961.271
  0
VERTEX
  8
MMIC_Label
  10
1612.564
  20
1959.915
  0
VERTEX
  8
MMIC_Label
  10
1612.348
  20
1959.085
  0
VERTEX
  8
MMIC_Label
  10
1612.369
  20
1958.09
  0
VERTEX
  8
MMIC_Label
  10
1621.482
  20
1958.09
  0
SEQEND
  0
POLYLINE
  8
MMIC_Label
  70
1
  66
1
  0
VERTEX
  8
MMIC_Label
  10
114.63
  20
291.05
  0
VERTEX
  8
MMIC_Label
  10
114.63
  20
312.83
  0
VERTEX
  8
MMIC_Label
  10
122.88
  20
312.83
  0
VERTEX
  8
MMIC_Label
  10
124.53
  20
311.84
  0
VERTEX
  8
MMIC_Label
  10
125.85
  20
310.85
  0
VERTEX
  8
MMIC_Label
  10
126.84
  20
309.53
  0
VERTEX
  8
MMIC_Label
  10
127.83
  20
307.88
  0
VERTEX
  8
MMIC_Label
  10
128.49
  20
305.9
  0
VERTEX
  8
MMIC_Label
  10
128.82
  20
303.92
  0
VERTEX
  8
MMIC_Label
  10
128.82
  20
299.96
  0
VERTEX
  8
MMIC_Label
  10
128.49
  20
297.98
  0
VERTEX
  8
MMIC_Label
  10
127.83
  20
296
  0
VERTEX
  8
MMIC_Label
  10
126.84
  20
294.35
  0
VERTEX
  8
MMIC_Label
  10
125.85
  20
293.03
  0
VERTEX
  8
MMIC_Label
  10
124.53
  20
292.04
  0
VERTEX
  8
MMIC_Label
  10
122.88
  20
291.05
  0
SEQEND
  0
POLYLINE
  8
MMIC_Label
  70
1
  66
1
  0
VERTEX
  8
MMIC_Label
  10
1603.2
  20
2008.8
  0
VERTEX
  8
MMIC_Label
  10
1618.2
  20
2008.8
  0
VERTEX
  8
MMIC_Label
  10
1618.2
  20
1993.8
  0
VERTEX
  8
MMIC_Label
  10
1603.2
  20
1993.8
  0
SEQEND
  0
POLYLINE
  8
MMIC_Label
  70
1
  66
1
  0
VERTEX
  8
MMIC_Label
  10
1789.03
  20
62.25
  0
VERTEX
  8
MMIC_Label
  10
1788.7
  20
64.23
  0
VERTEX
  8
MMIC_Label
  10
1788.7
  20
68.85
  0
VERTEX
  8
MMIC_Label
  10
1789.03
  20
70.83
  0
VERTEX
  8
MMIC_Label
  10
1789.69
  20
72.81
  0
VERTEX
  8
MMIC_Label
  10
1790.35
  20
74.46
  0
VERTEX
  8
MMIC_Label
  10
1791.34
  20
76.11
  0
VERTEX
  8
MMIC_Label
  10
1792.33
  20
77.1
  0
VERTEX
  8
MMIC_Label
  10
1793.65
  20
77.76
  0
VERTEX
  8
MMIC_Label
  10
1795.3
  20
78.09
  0
VERTEX
  8
MMIC_Label
  10
1796.62
  20
77.76
  0
VERTEX
  8
MMIC_Label
  10
1797.94
  20
77.1
  0
VERTEX
  8
MMIC_Label
  10
1799.26
  20
76.11
  0
SEQEND
  0
POLYLINE
  8
MMIC_Label
  70
1
  66
1
  0
VERTEX
  8
MMIC_Label
  10
1533.2
  20
2068.1
  0
VERTEX
  8
MMIC_Label
  10
1533.2
  20
2101.1
  0
VERTEX
  8
MMIC_Label
  10
1541.45
  20
2101.1
  0
VERTEX
  8
MMIC_Label
  10
1547.06
  20
2078.99
  0
VERTEX
  8
MMIC_Label
  10
1552.34
  20
2101.1
  0
VERTEX
  8
MMIC_Label
  10
1560.59
  20
2101.1
  0
VERTEX
  8
MMIC_Label
  10
1560.59
  20
2068.1
  0
VERTEX
  8
MMIC_Label
  10
1555.31
  20
2068.1
  0
VERTEX
  8
MMIC_Label
  10
1555.31
  20
2095.49
  0
VERTEX
  8
MMIC_Label
  10
1549.04
  20
2073.71
  0
VERTEX
  8
MMIC_Label
  10
1544.75
  20
2073.71
  0
VERTEX
  8
MMIC_Label
  10
1538.15
  20
2095.49
  0
VERTEX
  8
MMIC_Label
  10
1538.15
  20
2068.1
  0
SEQEND
  0
POLYLINE
  8
MMIC_Label
  70
1
  66
1
  0
VERTEX
  8
MMIC_Label
  10
1673.2
  20
2043.1
  0
VERTEX
  8
MMIC_Label
  10
1698.2
  20
2043.1
  0
VERTEX
  8
MMIC_Label
  10
1698.2
  20
2048.1
  0
VERTEX
  8
MMIC_Label
  10
1673.2
  20
2048.1
  0
SEQEND
  0
POLYLINE
  8
MMIC_Label
  70
1
  66
1
  0
VERTEX
  8
MMIC_Label
  10
1578.2
  20
1988.7
  0
VERTEX
  8
MMIC_Label
  10
1553.2
  20
1988.7
  0
VERTEX
  8
MMIC_Label
  10
1553.2
  20
1983.7
  0
VERTEX
  8
MMIC_Label
  10
1578.2
  20
1983.7
  0
SEQEND
  0
POLYLINE
  8
MMIC_Label
  70
1
  66
1
  0
VERTEX
  8
MMIC_Label
  10
1608.2
  20
1988.7
  0
VERTEX
  8
MMIC_Label
  10
1583.2
  20
1988.7
  0
VERTEX
  8
MMIC_Label
  10
1583.2
  20
1983.7
  0
VERTEX
  8
MMIC_Label
  10
1608.2
  20
1983.7
  0
SEQEND
  0
POLYLINE
  8
MMIC_Label
  70
1
  66
1
  0
VERTEX
  8
MMIC_Label
  10
1638.2
  20
1988.7
  0
VERTEX
  8
MMIC_Label
  10
1613.2
  20
1988.7
  0
VERTEX
  8
MMIC_Label
  10
1613.2
  20
1983.7
  0
VERTEX
  8
MMIC_Label
  10
1638.2
  20
1983.7
  0
SEQEND
  0
POLYLINE
  8
MMIC_Label
  70
1
  66
1
  0
VERTEX
  8
MMIC_Label
  10
1556.8
  20
2036
  0
VERTEX
  8
MMIC_Label
  10
1555.7
  20
2037.9
  0
VERTEX
  8
MMIC_Label
  10
1554.5
  20
2038.9
  0
VERTEX
  8
MMIC_Label
  10
1551.9
  20
2039.8
  0
VERTEX
  8
MMIC_Label
  10
1543.7
  20
2039.8
  0
VERTEX
  8
MMIC_Label
  10
1543.7
  20
2023.3
  0
VERTEX
  8
MMIC_Label
  10
1546.7
  20
2023.3
  0
VERTEX
  8
MMIC_Label
  10
1546.7
  20
2036.8
  0
VERTEX
  8
MMIC_Label
  10
1551.4
  20
2036.8
  0
VERTEX
  8
MMIC_Label
  10
1553
  20
2036.2
  0
VERTEX
  8
MMIC_Label
  10
1553.3
  20
2036
  0
VERTEX
  8
MMIC_Label
  10
1553.8
  20
2035.2
  0
VERTEX
  8
MMIC_Label
  10
1553.8
  20
2034.6
  0
VERTEX
  8
MMIC_Label
  10
1553.1
  20
2033.3
  0
VERTEX
  8
MMIC_Label
  10
1552.9
  20
2033.2
  0
VERTEX
  8
MMIC_Label
  10
1551.3
  20
2032.6
  0
VERTEX
  8
MMIC_Label
  10
1548.2
  20
2032.6
  0
VERTEX
  8
MMIC_Label
  10
1548.2
  20
2029.6
  0
VERTEX
  8
MMIC_Label
  10
1549.5
  20
2029.6
  0
VERTEX
  8
MMIC_Label
  10
1554
  20
2022.5
  0
VERTEX
  8
MMIC_Label
  10
1556.5
  20
2024.1
  0
VERTEX
  8
MMIC_Label
  10
1552.8
  20
2030
  0
VERTEX
  8
MMIC_Label
  10
1554.6
  20
2030.5
  0
VERTEX
  8
MMIC_Label
  10
1555.6
  20
2031.6
  0
VERTEX
  8
MMIC_Label
  10
1556.8
  20
2033.9
  0
SEQEND
  0
POLYLINE
  8
MMIC_Label
  70
1
  66
1
  0
VERTEX
  8
MMIC_Label
  10
1593.39
  20
2128.54
  0
VERTEX
  8
MMIC_Label
  10
1592.73
  20
2130.85
  0
VERTEX
  8
MMIC_Label
  10
1591.74
  20
2133.16
  0
VERTEX
  8
MMIC_Label
  10
1590.42
  20
2134.81
  0
VERTEX
  8
MMIC_Label
  10
1588.77
  20
2136.46
  0
VERTEX
  8
MMIC_Label
  10
1587.12
  20
2137.78
  0
VERTEX
  8
MMIC_Label
  10
1584.81
  20
2138.77
  0
VERTEX
  8
MMIC_Label
  10
1582.83
  20
2139.1
  0
VERTEX
  8
MMIC_Label
  10
1577.55
  20
2139.1
  0
VERTEX
  8
MMIC_Label
  10
1575.24
  20
2138.77
  0
VERTEX
  8
MMIC_Label
  10
1572.93
  20
2137.45
  0
VERTEX
  8
MMIC_Label
  10
1571.28
  20
2136.13
  0
VERTEX
  8
MMIC_Label
  10
1569.63
  20
2134.48
  0
VERTEX
  8
MMIC_Label
  10
1568.31
  20
2132.17
  0
VERTEX
  8
MMIC_Label
  10
1567.32
  20
2130.19
  0
VERTEX
  8
MMIC_Label
  10
1566.66
  20
2127.55
  0
VERTEX
  8
MMIC_Label
  10
1566.33
  20
2125.24
  0
VERTEX
  8
MMIC_Label
  10
1566
  20
2122.6
  0
VERTEX
  8
MMIC_Label
  10
1566.33
  20
2119.96
  0
VERTEX
  8
MMIC_Label
  10
1566.66
  20
2117.65
  0
VERTEX
  8
MMIC_Label
  10
1567.32
  20
2115.01
  0
VERTEX
  8
MMIC_Label
  10
1568.31
  20
2113.03
  0
VERTEX
  8
MMIC_Label
  10
1569.63
  20
2110.72
  0
VERTEX
  8
MMIC_Label
  10
1571.28
  20
2109.07
  0
VERTEX
  8
MMIC_Label
  10
1572.93
  20
2107.75
  0
VERTEX
  8
MMIC_Label
  10
1575.24
  20
2106.43
  0
VERTEX
  8
MMIC_Label
  10
1577.55
  20
2106.1
  0
VERTEX
  8
MMIC_Label
  10
1582.17
  20
2106.1
  0
VERTEX
  8
MMIC_Label
  10
1584.15
  20
2106.43
  0
VERTEX
  8
MMIC_Label
  10
1587.45
  20
2108.41
  0
VERTEX
  8
MMIC_Label
  10
1588.44
  20
2110.06
  0
VERTEX
  8
MMIC_Label
  10
1589.76
  20
2106.1
  0
VERTEX
  8
MMIC_Label
  10
1593.39
  20
2106.1
  0
VERTEX
  8
MMIC_Label
  10
1593.39
  20
2122.6
  0
VERTEX
  8
MMIC_Label
  10
1580.85
  20
2122.6
  0
VERTEX
  8
MMIC_Label
  10
1580.85
  20
2117.65
  0
VERTEX
  8
MMIC_Label
  10
1586.79
  20
2117.65
  0
VERTEX
  8
MMIC_Label
  10
1586.46
  20
2116
  0
VERTEX
  8
MMIC_Label
  10
1585.8
  20
2114.35
  0
VERTEX
  8
MMIC_Label
  10
1584.81
  20
2113.03
  0
VERTEX
  8
MMIC_Label
  10
1583.49
  20
2112.04
  0
VERTEX
  8
MMIC_Label
  10
1582.17
  20
2111.38
  0
VERTEX
  8
MMIC_Label
  10
1580.19
  20
2111.05
  0
VERTEX
  8
MMIC_Label
  10
1578.54
  20
2111.38
  0
VERTEX
  8
MMIC_Label
  10
1576.89
  20
2112.04
  0
VERTEX
  8
MMIC_Label
  10
1575.57
  20
2113.03
  0
VERTEX
  8
MMIC_Label
  10
1574.25
  20
2114.68
  0
VERTEX
  8
MMIC_Label
  10
1573.59
  20
2116.33
  0
VERTEX
  8
MMIC_Label
  10
1572.93
  20
2118.31
  0
VERTEX
  8
MMIC_Label
  10
1572.6
  20
2120.29
  0
VERTEX
  8
MMIC_Label
  10
1572.6
  20
2124.91
  0
VERTEX
  8
MMIC_Label
  10
1572.93
  20
2126.89
  0
VERTEX
  8
MMIC_Label
  10
1573.59
  20
2128.87
  0
VERTEX
  8
MMIC_Label
  10
1574.25
  20
2130.52
  0
VERTEX
  8
MMIC_Label
  10
1575.57
  20
2132.17
  0
VERTEX
  8
MMIC_Label
  10
1576.89
  20
2133.16
  0
VERTEX
  8
MMIC_Label
  10
1578.54
  20
2133.82
  0
VERTEX
  8
MMIC_Label
  10
1580.19
  20
2134.15
  0
VERTEX
  8
MMIC_Label
  10
1582.17
  20
2133.82
  0
VERTEX
  8
MMIC_Label
  10
1583.82
  20
2132.83
  0
VERTEX
  8
MMIC_Label
  10
1585.14
  20
2131.84
  0
VERTEX
  8
MMIC_Label
  10
1586.13
  20
2130.19
  0
VERTEX
  8
MMIC_Label
  10
1586.79
  20
2128.54
  0
SEQEND
  0
POLYLINE
  8
MMIC_Label
  70
1
  66
1
  0
VERTEX
  8
MMIC_Label
  10
75.23
  20
285.44
  0
VERTEX
  8
MMIC_Label
  10
75.23
  20
318.44
  0
VERTEX
  8
MMIC_Label
  10
81.83
  20
318.44
  0
VERTEX
  8
MMIC_Label
  10
96.68
  20
295.34
  0
VERTEX
  8
MMIC_Label
  10
96.68
  20
318.44
  0
VERTEX
  8
MMIC_Label
  10
102.62
  20
318.44
  0
VERTEX
  8
MMIC_Label
  10
102.62
  20
285.44
  0
VERTEX
  8
MMIC_Label
  10
96.68
  20
285.44
  0
VERTEX
  8
MMIC_Label
  10
81.17
  20
308.54
  0
VERTEX
  8
MMIC_Label
  10
81.17
  20
285.44
  0
SEQEND
  0
POLYLINE
  8
MMIC_Label
  70
1
  66
1
  0
VERTEX
  8
MMIC_Label
  10
1695.072
  20
1958.19
  0
VERTEX
  8
MMIC_Label
  10
1690.893
  20
1965.826
  0
VERTEX
  8
MMIC_Label
  10
1694.776
  20
1972.619
  0
VERTEX
  8
MMIC_Label
  10
1691.951
  20
1972.619
  0
VERTEX
  8
MMIC_Label
  10
1690.058
  20
1969.209
  0
VERTEX
  8
MMIC_Label
  10
1689.666
  20
1968.516
  0
VERTEX
  8
MMIC_Label
  10
1689.201
  20
1967.619
  0
VERTEX
  8
MMIC_Label
  10
1688.904
  20
1968.272
  0
VERTEX
  8
MMIC_Label
  10
1688.418
  20
1969.236
  0
VERTEX
  8
MMIC_Label
  10
1686.693
  20
1972.619
  0
VERTEX
  8
MMIC_Label
  10
1683.763
  20
1972.619
  0
VERTEX
  8
MMIC_Label
  10
1687.561
  20
1965.69
  0
VERTEX
  8
MMIC_Label
  10
1683.456
  20
1958.19
  0
VERTEX
  8
MMIC_Label
  10
1686.312
  20
1958.19
  0
VERTEX
  8
MMIC_Label
  10
1689.264
  20
1963.883
  0
VERTEX
  8
MMIC_Label
  10
1689.878
  20
1962.674
  0
VERTEX
  8
MMIC_Label
  10
1692.184
  20
1958.19
  0
SEQEND
  0
POLYLINE
  8
MMIC_Label
  70
1
  66
1
  0
VERTEX
  8
MMIC_Label
  10
1693.2
  20
2008.8
  0
VERTEX
  8
MMIC_Label
  10
1708.2
  20
2008.8
  0
VERTEX
  8
MMIC_Label
  10
1708.2
  20
1993.8
  0
VERTEX
  8
MMIC_Label
  10
1693.2
  20
1993.8
  0
SEQEND
  0
POLYLINE
  8
MMIC_Label
  70
1
  66
1
  0
VERTEX
  8
MMIC_Label
  10
1628.2
  20
1983.7
  0
VERTEX
  8
MMIC_Label
  10
1628.2
  20
2048.1
  0
VERTEX
  8
MMIC_Label
  10
1623.2
  20
2048.1
  0
VERTEX
  8
MMIC_Label
  10
1623.2
  20
1983.7
  0
SEQEND
  0
POLYLINE
  8
MMIC_Label
  70
1
  66
1
  0
VERTEX
  8
MMIC_Label
  10
1580.939
  20
1958.19
  0
VERTEX
  8
MMIC_Label
  10
1576.76
  20
1965.826
  0
VERTEX
  8
MMIC_Label
  10
1580.643
  20
1972.619
  0
VERTEX
  8
MMIC_Label
  10
1578.368
  20
1972.619
  0
VERTEX
  8
MMIC_Label
  10
1576.475
  20
1969.209
  0
VERTEX
  8
MMIC_Label
  10
1576.083
  20
1968.516
  0
VERTEX
  8
MMIC_Label
  10
1575.618
  20
1967.619
  0
VERTEX
  8
MMIC_Label
  10
1575.321
  20
1968.272
  0
VERTEX
  8
MMIC_Label
  10
1574.835
  20
1969.236
  0
VERTEX
  8
MMIC_Label
  10
1573.11
  20
1972.619
  0
VERTEX
  8
MMIC_Label
  10
1570.73
  20
1972.619
  0
VERTEX
  8
MMIC_Label
  10
1574.528
  20
1965.69
  0
VERTEX
  8
MMIC_Label
  10
1570.423
  20
1958.19
  0
VERTEX
  8
MMIC_Label
  10
1572.729
  20
1958.19
  0
VERTEX
  8
MMIC_Label
  10
1575.681
  20
1963.883
  0
VERTEX
  8
MMIC_Label
  10
1576.295
  20
1962.674
  0
VERTEX
  8
MMIC_Label
  10
1578.601
  20
1958.19
  0
SEQEND
  0
POLYLINE
  8
MMIC_Label
  70
1
  66
1
  0
VERTEX
  8
MMIC_Label
  10
1593.39
  20
2128.54
  0
VERTEX
  8
MMIC_Label
  10
1592.73
  20
2130.85
  0
VERTEX
  8
MMIC_Label
  10
1591.74
  20
2133.16
  0
VERTEX
  8
MMIC_Label
  10
1590.42
  20
2134.81
  0
VERTEX
  8
MMIC_Label
  10
1588.77
  20
2136.46
  0
VERTEX
  8
MMIC_Label
  10
1587.12
  20
2137.78
  0
VERTEX
  8
MMIC_Label
  10
1584.81
  20
2138.77
  0
VERTEX
  8
MMIC_Label
  10
1582.83
  20
2139.1
  0
VERTEX
  8
MMIC_Label
  10
1577.55
  20
2139.1
  0
VERTEX
  8
MMIC_Label
  10
1575.24
  20
2138.77
  0
VERTEX
  8
MMIC_Label
  10
1572.93
  20
2137.45
  0
VERTEX
  8
MMIC_Label
  10
1571.28
  20
2136.13
  0
VERTEX
  8
MMIC_Label
  10
1569.63
  20
2134.48
  0
VERTEX
  8
MMIC_Label
  10
1568.31
  20
2132.17
  0
VERTEX
  8
MMIC_Label
  10
1567.32
  20
2130.19
  0
VERTEX
  8
MMIC_Label
  10
1566.66
  20
2127.55
  0
VERTEX
  8
MMIC_Label
  10
1566.33
  20
2125.24
  0
VERTEX
  8
MMIC_Label
  10
1566
  20
2122.6
  0
VERTEX
  8
MMIC_Label
  10
1566.33
  20
2119.96
  0
VERTEX
  8
MMIC_Label
  10
1566.66
  20
2117.65
  0
VERTEX
  8
MMIC_Label
  10
1567.32
  20
2115.01
  0
VERTEX
  8
MMIC_Label
  10
1568.31
  20
2113.03
  0
VERTEX
  8
MMIC_Label
  10
1569.63
  20
2110.72
  0
VERTEX
  8
MMIC_Label
  10
1571.28
  20
2109.07
  0
VERTEX
  8
MMIC_Label
  10
1572.93
  20
2107.75
  0
VERTEX
  8
MMIC_Label
  10
1575.24
  20
2106.43
  0
VERTEX
  8
MMIC_Label
  10
1577.55
  20
2106.1
  0
VERTEX
  8
MMIC_Label
  10
1582.17
  20
2106.1
  0
VERTEX
  8
MMIC_Label
  10
1584.15
  20
2106.43
  0
VERTEX
  8
MMIC_Label
  10
1587.45
  20
2108.41
  0
VERTEX
  8
MMIC_Label
  10
1588.44
  20
2110.06
  0
VERTEX
  8
MMIC_Label
  10
1589.76
  20
2106.1
  0
VERTEX
  8
MMIC_Label
  10
1593.39
  20
2106.1
  0
VERTEX
  8
MMIC_Label
  10
1593.39
  20
2122.6
  0
VERTEX
  8
MMIC_Label
  10
1580.85
  20
2122.6
  0
VERTEX
  8
MMIC_Label
  10
1580.85
  20
2117.65
  0
VERTEX
  8
MMIC_Label
  10
1586.79
  20
2117.65
  0
VERTEX
  8
MMIC_Label
  10
1586.46
  20
2116
  0
VERTEX
  8
MMIC_Label
  10
1585.8
  20
2114.35
  0
VERTEX
  8
MMIC_Label
  10
1584.81
  20
2113.03
  0
VERTEX
  8
MMIC_Label
  10
1583.49
  20
2112.04
  0
VERTEX
  8
MMIC_Label
  10
1582.17
  20
2111.38
  0
VERTEX
  8
MMIC_Label
  10
1580.19
  20
2111.05
  0
VERTEX
  8
MMIC_Label
  10
1578.54
  20
2111.38
  0
VERTEX
  8
MMIC_Label
  10
1576.89
  20
2112.04
  0
VERTEX
  8
MMIC_Label
  10
1575.57
  20
2113.03
  0
VERTEX
  8
MMIC_Label
  10
1574.25
  20
2114.68
  0
VERTEX
  8
MMIC_Label
  10
1573.59
  20
2116.33
  0
VERTEX
  8
MMIC_Label
  10
1572.93
  20
2118.31
  0
VERTEX
  8
MMIC_Label
  10
1572.6
  20
2120.29
  0
VERTEX
  8
MMIC_Label
  10
1572.6
  20
2124.91
  0
VERTEX
  8
MMIC_Label
  10
1572.93
  20
2126.89
  0
VERTEX
  8
MMIC_Label
  10
1573.59
  20
2128.87
  0
VERTEX
  8
MMIC_Label
  10
1574.25
  20
2130.52
  0
VERTEX
  8
MMIC_Label
  10
1575.57
  20
2132.17
  0
VERTEX
  8
MMIC_Label
  10
1576.89
  20
2133.16
  0
VERTEX
  8
MMIC_Label
  10
1578.54
  20
2133.82
  0
VERTEX
  8
MMIC_Label
  10
1580.19
  20
2134.15
  0
VERTEX
  8
MMIC_Label
  10
1582.17
  20
2133.82
  0
VERTEX
  8
MMIC_Label
  10
1583.82
  20
2132.83
  0
VERTEX
  8
MMIC_Label
  10
1585.14
  20
2131.84
  0
VERTEX
  8
MMIC_Label
  10
1586.13
  20
2130.19
  0
VERTEX
  8
MMIC_Label
  10
1586.79
  20
2128.54
  0
SEQEND
  0
POLYLINE
  8
MMIC_Label
  70
1
  66
1
  0
VERTEX
  8
MMIC_Label
  10
1573.2
  20
2038.8
  0
VERTEX
  8
MMIC_Label
  10
1588.2
  20
2038.8
  0
VERTEX
  8
MMIC_Label
  10
1588.2
  20
2023.8
  0
VERTEX
  8
MMIC_Label
  10
1573.2
  20
2023.8
  0
SEQEND
  0
POLYLINE
  8
MMIC_Label
  70
1
  66
1
  0
VERTEX
  8
MMIC_Label
  10
1703.2
  20
2043.1
  0
VERTEX
  8
MMIC_Label
  10
1718.2
  20
2043.1
  0
VERTEX
  8
MMIC_Label
  10
1718.2
  20
2048.1
  0
VERTEX
  8
MMIC_Label
  10
1703.2
  20
2048.1
  0
SEQEND
  0
POLYLINE
  8
MMIC_Label
  70
1
  66
1
  0
VERTEX
  8
MMIC_Label
  10
75.23
  20
285.44
  0
VERTEX
  8
MMIC_Label
  10
75.23
  20
318.44
  0
VERTEX
  8
MMIC_Label
  10
81.83
  20
318.44
  0
VERTEX
  8
MMIC_Label
  10
96.68
  20
295.34
  0
VERTEX
  8
MMIC_Label
  10
96.68
  20
318.44
  0
VERTEX
  8
MMIC_Label
  10
102.62
  20
318.44
  0
VERTEX
  8
MMIC_Label
  10
102.62
  20
285.44
  0
VERTEX
  8
MMIC_Label
  10
96.68
  20
285.44
  0
VERTEX
  8
MMIC_Label
  10
81.17
  20
308.54
  0
VERTEX
  8
MMIC_Label
  10
81.17
  20
285.44
  0
SEQEND
  0
POLYLINE
  8
MMIC_Label
  70
1
  66
1
  0
VERTEX
  8
MMIC_Label
  10
1633.2
  20
2038.8
  0
VERTEX
  8
MMIC_Label
  10
1648.2
  20
2038.8
  0
VERTEX
  8
MMIC_Label
  10
1648.2
  20
2023.8
  0
VERTEX
  8
MMIC_Label
  10
1633.2
  20
2023.8
  0
SEQEND
  0
POLYLINE
  8
MMIC_Label
  70
1
  66
1
  0
VERTEX
  8
MMIC_Label
  10
1633.2
  20
2008.8
  0
VERTEX
  8
MMIC_Label
  10
1648.2
  20
2008.8
  0
VERTEX
  8
MMIC_Label
  10
1648.2
  20
1993.8
  0
VERTEX
  8
MMIC_Label
  10
1633.2
  20
1993.8
  0
SEQEND
  0
POLYLINE
  8
MMIC_Label
  70
1
  66
1
  0
VERTEX
  8
MMIC_Label
  10
1678.548
  20
1965.967
  0
VERTEX
  8
MMIC_Label
  10
1677.91
  20
1967.266
  0
VERTEX
  8
MMIC_Label
  10
1677.266
  20
1968.573
  0
VERTEX
  8
MMIC_Label
  10
1676.209
  20
1969.078
  0
VERTEX
  8
MMIC_Label
  10
1677.036
  20
1969.534
  0
VERTEX
  8
MMIC_Label
  10
1677.526
  20
1970.544
  0
VERTEX
  8
MMIC_Label
  10
1678.012
  20
1971.549
  0
VERTEX
  8
MMIC_Label
  10
1678.012
  20
1975.016
  0
VERTEX
  8
MMIC_Label
  10
1676.951
  20
1976.496
  0
VERTEX
  8
MMIC_Label
  10
1676.346
  20
1977.34
  0
VERTEX
  8
MMIC_Label
  10
1675.879
  20
1977.99
  0
VERTEX
  8
MMIC_Label
  10
1675.135
  20
1977.99
  0
VERTEX
  8
MMIC_Label
  10
1675.135
  20
1975.656
  0
VERTEX
  8
MMIC_Label
  10
1675.572
  20
1975.025
  0
VERTEX
  8
MMIC_Label
  10
1675.734
  20
1974.792
  0
VERTEX
  8
MMIC_Label
  10
1675.734
  20
1971.087
  0
VERTEX
  8
MMIC_Label
  10
1675.59
  20
1970.879
  0
VERTEX
  8
MMIC_Label
  10
1675.368
  20
1970.56
  0
VERTEX
  8
MMIC_Label
  10
1672.913
  20
1970.56
  0
VERTEX
  8
MMIC_Label
  10
1672.686
  20
1970.887
  0
VERTEX
  8
MMIC_Label
  10
1672.506
  20
1971.146
  0
VERTEX
  8
MMIC_Label
  10
1672.506
  20
1974.778
  0
VERTEX
  8
MMIC_Label
  10
1673.135
  20
1975.671
  0
VERTEX
  8
MMIC_Label
  10
1673.135
  20
1977.99
  0
VERTEX
  8
MMIC_Label
  10
1672.365
  20
1977.99
  0
VERTEX
  8
MMIC_Label
  10
1671.311
  20
1976.529
  0
VERTEX
  8
MMIC_Label
  10
1670.266
  20
1975.082
  0
VERTEX
  8
MMIC_Label
  10
1670.266
  20
1971.563
  0
VERTEX
  8
MMIC_Label
  10
1671.254
  20
1969.533
  0
VERTEX
  8
MMIC_Label
  10
1671.959
  20
1969.154
  0
VERTEX
  8
MMIC_Label
  10
1672.086
  20
1969.086
  0
VERTEX
  8
MMIC_Label
  10
1671.061
  20
1968.694
  0
VERTEX
  8
MMIC_Label
  10
1670.397
  20
1967.404
  0
VERTEX
  8
MMIC_Label
  10
1669.742
  20
1966.126
  0
VERTEX
  8
MMIC_Label
  10
1669.742
  20
1961.704
  0
VERTEX
  8
MMIC_Label
  10
1670.944
  20
1960.007
  0
VERTEX
  8
MMIC_Label
  10
1671.406
  20
1959.35
  0
VERTEX
  8
MMIC_Label
  10
1672.16
  20
1958.29
  0
VERTEX
  8
MMIC_Label
  10
1673.257
  20
1958.29
  0
VERTEX
  8
MMIC_Label
  10
1673.257
  20
1960.579
  0
VERTEX
  8
MMIC_Label
  10
1672.845
  20
1960.91
  0
VERTEX
  8
MMIC_Label
  10
1672.497
  20
1961.189
  0
VERTEX
  8
MMIC_Label
  10
1671.888
  20
1962.939
  0
VERTEX
  8
MMIC_Label
  10
1671.888
  20
1966.275
  0
VERTEX
  8
MMIC_Label
  10
1672.317
  20
1966.904
  0
VERTEX
  8
MMIC_Label
  10
1673.029
  20
1967.954
  0
VERTEX
  8
MMIC_Label
  10
1675.214
  20
1967.954
  0
VERTEX
  8
MMIC_Label
  10
1675.956
  20
1966.891
  0
VERTEX
  8
MMIC_Label
  10
1676.368
  20
1966.298
  0
VERTEX
  8
MMIC_Label
  10
1676.368
  20
1962.02
  0
VERTEX
  8
MMIC_Label
  10
1675.978
  20
1961.455
  0
VERTEX
  8
MMIC_Label
  10
1675.258
  20
1960.418
  0
VERTEX
  8
MMIC_Label
  10
1675.258
  20
1958.29
  0
VERTEX
  8
MMIC_Label
  10
1676.13
  20
1958.29
  0
VERTEX
  8
MMIC_Label
  10
1677.344
  20
1959.998
  0
VERTEX
  8
MMIC_Label
  10
1678.548
  20
1961.692
  0
SEQEND
  0
POLYLINE
  8
MMIC_Label
  70
1
  66
1
  0
VERTEX
  8
MMIC_Label
  10
1698.2
  20
1988.7
  0
VERTEX
  8
MMIC_Label
  10
1673.2
  20
1988.7
  0
VERTEX
  8
MMIC_Label
  10
1673.2
  20
1983.7
  0
VERTEX
  8
MMIC_Label
  10
1698.2
  20
1983.7
  0
SEQEND
  0
POLYLINE
  8
MMIC_Label
  70
1
  66
1
  0
VERTEX
  8
MMIC_Label
  10
1792.114
  20
2008.112
  0
VERTEX
  8
MMIC_Label
  10
1792.111
  20
2008.102
  0
VERTEX
  8
MMIC_Label
  10
1792.107
  20
2008.091
  0
VERTEX
  8
MMIC_Label
  10
1792.102
  20
2008.081
  0
VERTEX
  8
MMIC_Label
  10
1792.097
  20
2008.071
  0
VERTEX
  8
MMIC_Label
  10
1792.082
  20
2008.054
  0
VERTEX
  8
MMIC_Label
  10
1792.074
  20
2008.046
  0
VERTEX
  8
MMIC_Label
  10
1792.065
  20
2008.039
  0
VERTEX
  8
MMIC_Label
  10
1792.055
  20
2008.034
  0
VERTEX
  8
MMIC_Label
  10
1792.046
  20
2008.029
  0
VERTEX
  8
MMIC_Label
  10
1792.034
  20
2008.026
  0
VERTEX
  8
MMIC_Label
  10
1792.024
  20
2008.022
  0
VERTEX
  8
MMIC_Label
  10
1792.013
  20
2008.021
  0
VERTEX
  8
MMIC_Label
  10
1792.002
  20
2008.021
  0
VERTEX
  8
MMIC_Label
  10
1770.407
  20
2008.097
  0
VERTEX
  8
MMIC_Label
  10
1770.24
  20
2008.09
  0
VERTEX
  8
MMIC_Label
  10
1770.074
  20
2008.067
  0
VERTEX
  8
MMIC_Label
  10
1769.91
  20
2008.029
  0
VERTEX
  8
MMIC_Label
  10
1769.75
  20
2007.975
  0
VERTEX
  8
MMIC_Label
  10
1769.598
  20
2007.908
  0
VERTEX
  8
MMIC_Label
  10
1769.45
  20
2007.826
  0
VERTEX
  8
MMIC_Label
  10
1769.313
  20
2007.73
  0
VERTEX
  8
MMIC_Label
  10
1769.184
  20
2007.623
  0
VERTEX
  8
MMIC_Label
  10
1769.066
  20
2007.504
  0
VERTEX
  8
MMIC_Label
  10
1763.722
  20
2001.59
  0
VERTEX
  8
MMIC_Label
  10
1760.424
  20
1997.938
  0
VERTEX
  8
MMIC_Label
  10
1760.31
  20
1997.799
  0
VERTEX
  8
MMIC_Label
  10
1760.21
  20
1997.649
  0
VERTEX
  8
MMIC_Label
  10
1760.126
  20
1997.489
  0
VERTEX
  8
MMIC_Label
  10
1760.058
  20
1997.322
  0
VERTEX
  8
MMIC_Label
  10
1760.008
  20
1997.149
  0
VERTEX
  8
MMIC_Label
  10
1759.975
  20
1996.971
  0
VERTEX
  8
MMIC_Label
  10
1759.96
  20
1996.791
  0
VERTEX
  8
MMIC_Label
  10
1759.963
  20
1996.611
  0
VERTEX
  8
MMIC_Label
  10
1759.985
  20
1996.432
  0
VERTEX
  8
MMIC_Label
  10
1760.023
  20
1996.256
  0
VERTEX
  8
MMIC_Label
  10
1760.08
  20
1996.085
  0
VERTEX
  8
MMIC_Label
  10
1760.153
  20
1995.92
  0
VERTEX
  8
MMIC_Label
  10
1760.242
  20
1995.763
  0
VERTEX
  8
MMIC_Label
  10
1760.347
  20
1995.616
  0
VERTEX
  8
MMIC_Label
  10
1760.466
  20
1995.481
  0
VERTEX
  8
MMIC_Label
  10
1760.598
  20
1995.358
  0
VERTEX
  8
MMIC_Label
  10
1760.741
  20
1995.248
  0
VERTEX
  8
MMIC_Label
  10
1760.894
  20
1995.154
  0
VERTEX
  8
MMIC_Label
  10
1761.057
  20
1995.074
  0
VERTEX
  8
MMIC_Label
  10
1761.226
  20
1995.013
  0
VERTEX
  8
MMIC_Label
  10
1761.401
  20
1994.968
  0
VERTEX
  8
MMIC_Label
  10
1761.579
  20
1994.941
  0
VERTEX
  8
MMIC_Label
  10
1761.759
  20
1994.932
  0
VERTEX
  8
MMIC_Label
  10
1815.258
  20
1994.932
  0
VERTEX
  8
MMIC_Label
  10
1815.433
  20
1994.941
  0
VERTEX
  8
MMIC_Label
  10
1815.606
  20
1994.966
  0
VERTEX
  8
MMIC_Label
  10
1815.777
  20
1995.008
  0
VERTEX
  8
MMIC_Label
  10
1815.942
  20
1995.067
  0
VERTEX
  8
MMIC_Label
  10
1816.101
  20
1995.142
  0
VERTEX
  8
MMIC_Label
  10
1816.251
  20
1995.231
  0
VERTEX
  8
MMIC_Label
  10
1816.393
  20
1995.334
  0
VERTEX
  8
MMIC_Label
  10
1816.523
  20
1995.452
  0
VERTEX
  8
MMIC_Label
  10
1816.642
  20
1995.581
  0
VERTEX
  8
MMIC_Label
  10
1816.747
  20
1995.721
  0
VERTEX
  8
MMIC_Label
  10
1816.838
  20
1995.87
  0
VERTEX
  8
MMIC_Label
  10
1816.914
  20
1996.029
  0
VERTEX
  8
MMIC_Label
  10
1816.975
  20
1996.193
  0
VERTEX
  8
MMIC_Label
  10
1817.019
  20
1996.362
  0
VERTEX
  8
MMIC_Label
  10
1817.047
  20
1996.536
  0
VERTEX
  8
MMIC_Label
  10
1817.058
  20
1996.71
  0
VERTEX
  8
MMIC_Label
  10
1817.051
  20
1996.886
  0
VERTEX
  8
MMIC_Label
  10
1817.028
  20
1997.06
  0
VERTEX
  8
MMIC_Label
  10
1816.987
  20
1997.23
  0
VERTEX
  8
MMIC_Label
  10
1816.93
  20
1997.396
  0
VERTEX
  8
MMIC_Label
  10
1816.858
  20
1997.556
  0
VERTEX
  8
MMIC_Label
  10
1795.85
  20
2038.37
  0
VERTEX
  8
MMIC_Label
  10
1794.97
  20
2040.13
  0
VERTEX
  8
MMIC_Label
  10
1794.09
  20
2041.729
  0
VERTEX
  8
MMIC_Label
  10
1793.374
  20
2043.086
  0
VERTEX
  8
MMIC_Label
  10
1792.336
  20
2044.442
  0
VERTEX
  8
MMIC_Label
  10
1791.539
  20
2045.398
  0
VERTEX
  8
MMIC_Label
  10
1790.745
  20
2046.193
  0
VERTEX
  8
MMIC_Label
  10
1790.188
  20
2046.59
  0
VERTEX
  8
MMIC_Label
  10
1789.313
  20
2047.146
  0
VERTEX
  8
MMIC_Label
  10
1788.602
  20
2047.464
  0
VERTEX
  8
MMIC_Label
  10
1787.724
  20
2047.702
  0
VERTEX
  8
MMIC_Label
  10
1786.93
  20
2047.941
  0
VERTEX
  8
MMIC_Label
  10
1785.975
  20
2048.02
  0
VERTEX
  8
MMIC_Label
  10
1784.62
  20
2048.1
  0
VERTEX
  8
MMIC_Label
  10
1783.264
  20
2048.02
  0
VERTEX
  8
MMIC_Label
  10
1782.23
  20
2047.94
  0
VERTEX
  8
MMIC_Label
  10
1781.595
  20
2047.782
  0
VERTEX
  8
MMIC_Label
  10
1780.718
  20
2047.542
  0
VERTEX
  8
MMIC_Label
  10
1779.286
  20
2046.986
  0
VERTEX
  8
MMIC_Label
  10
1778.17
  20
2046.27
  0
VERTEX
  8
MMIC_Label
  10
1776.573
  20
2045.23
  0
VERTEX
  8
MMIC_Label
  10
1775.138
  20
2044.113
  0
VERTEX
  8
MMIC_Label
  10
1773.86
  20
2042.917
  0
VERTEX
  8
MMIC_Label
  10
1772.501
  20
2041.398
  0
VERTEX
  8
MMIC_Label
  10
1749.744
  20
2015.568
  0
VERTEX
  8
MMIC_Label
  10
1743.476
  20
2008.454
  0
VERTEX
  8
MMIC_Label
  10
1743.476
  20
2008.246
  0
VERTEX
  8
MMIC_Label
  10
1744.511
  20
2005.618
  0
VERTEX
  8
MMIC_Label
  10
1745.79
  20
2002.982
  0
VERTEX
  8
MMIC_Label
  10
1747.229
  20
2000.425
  0
VERTEX
  8
MMIC_Label
  10
1748.586
  20
1998.266
  0
VERTEX
  8
MMIC_Label
  10
1748.626
  20
1998.211
  0
VERTEX
  8
MMIC_Label
  10
1748.799
  20
1998.006
  0
VERTEX
  8
MMIC_Label
  10
1748.991
  20
1997.818
  0
VERTEX
  8
MMIC_Label
  10
1749.202
  20
1997.65
  0
VERTEX
  8
MMIC_Label
  10
1749.427
  20
1997.503
  0
VERTEX
  8
MMIC_Label
  10
1749.666
  20
1997.379
  0
VERTEX
  8
MMIC_Label
  10
1749.916
  20
1997.28
  0
VERTEX
  8
MMIC_Label
  10
1750.174
  20
1997.205
  0
VERTEX
  8
MMIC_Label
  10
1750.438
  20
1997.155
  0
VERTEX
  8
MMIC_Label
  10
1750.706
  20
1997.133
  0
VERTEX
  8
MMIC_Label
  10
1750.975
  20
1997.136
  0
VERTEX
  8
MMIC_Label
  10
1751.242
  20
1997.166
  0
VERTEX
  8
MMIC_Label
  10
1751.506
  20
1997.222
  0
VERTEX
  8
MMIC_Label
  10
1751.762
  20
1997.302
  0
VERTEX
  8
MMIC_Label
  10
1752.01
  20
1997.409
  0
VERTEX
  8
MMIC_Label
  10
1752.245
  20
1997.538
  0
VERTEX
  8
MMIC_Label
  10
1752.467
  20
1997.69
  0
VERTEX
  8
MMIC_Label
  10
1752.673
  20
1997.864
  0
VERTEX
  8
MMIC_Label
  10
1752.861
  20
1998.057
  0
VERTEX
  8
MMIC_Label
  10
1759.614
  20
2005.698
  0
VERTEX
  8
MMIC_Label
  10
1780.92
  20
2029.809
  0
VERTEX
  8
MMIC_Label
  10
1780.937
  20
2029.826
  0
VERTEX
  8
MMIC_Label
  10
1780.954
  20
2029.841
  0
VERTEX
  8
MMIC_Label
  10
1780.973
  20
2029.854
  0
VERTEX
  8
MMIC_Label
  10
1780.993
  20
2029.866
  0
VERTEX
  8
MMIC_Label
  10
1781.014
  20
2029.875
  0
VERTEX
  8
MMIC_Label
  10
1781.036
  20
2029.882
  0
VERTEX
  8
MMIC_Label
  10
1781.058
  20
2029.888
  0
VERTEX
  8
MMIC_Label
  10
1781.081
  20
2029.891
  0
VERTEX
  8
MMIC_Label
  10
1781.104
  20
2029.892
  0
VERTEX
  8
MMIC_Label
  10
1781.122
  20
2029.891
  0
VERTEX
  8
MMIC_Label
  10
1781.14
  20
2029.888
  0
VERTEX
  8
MMIC_Label
  10
1781.157
  20
2029.884
  0
VERTEX
  8
MMIC_Label
  10
1781.174
  20
2029.878
  0
VERTEX
  8
MMIC_Label
  10
1781.19
  20
2029.87
  0
VERTEX
  8
MMIC_Label
  10
1781.206
  20
2029.861
  0
VERTEX
  8
MMIC_Label
  10
1781.22
  20
2029.85
  0
VERTEX
  8
MMIC_Label
  10
1781.233
  20
2029.837
  0
VERTEX
  8
MMIC_Label
  10
1781.245
  20
2029.823
  0
VERTEX
  8
MMIC_Label
  10
1781.255
  20
2029.809
  0
VERTEX
  8
MMIC_Label
  10
1781.264
  20
2029.794
  0
VERTEX
  8
MMIC_Label
  10
1792.116
  20
2008.249
  0
VERTEX
  8
MMIC_Label
  10
1792.116
  20
2008.134
  0
VERTEX
  8
MMIC_Label
  10
1792.115
  20
2008.123
  0
SEQEND
  0
POLYLINE
  8
MMIC_Label
  70
1
  66
1
  0
VERTEX
  8
MMIC_Label
  10
108.03
  20
285.44
  0
VERTEX
  8
MMIC_Label
  10
108.03
  20
318.44
  0
VERTEX
  8
MMIC_Label
  10
121.89
  20
318.44
  0
VERTEX
  8
MMIC_Label
  10
124.53
  20
318.11
  0
VERTEX
  8
MMIC_Label
  10
126.84
  20
317.45
  0
VERTEX
  8
MMIC_Label
  10
128.82
  20
316.46
  0
VERTEX
  8
MMIC_Label
  10
130.47
  20
315.14
  0
VERTEX
  8
MMIC_Label
  10
132.12
  20
313.16
  0
VERTEX
  8
MMIC_Label
  10
134.1
  20
309.2
  0
VERTEX
  8
MMIC_Label
  10
134.76
  20
306.89
  0
VERTEX
  8
MMIC_Label
  10
135.42
  20
304.25
  0
VERTEX
  8
MMIC_Label
  10
135.42
  20
299.63
  0
VERTEX
  8
MMIC_Label
  10
134.76
  20
296.99
  0
VERTEX
  8
MMIC_Label
  10
134.1
  20
294.68
  0
VERTEX
  8
MMIC_Label
  10
132.12
  20
290.72
  0
VERTEX
  8
MMIC_Label
  10
130.47
  20
288.74
  0
VERTEX
  8
MMIC_Label
  10
128.82
  20
287.42
  0
VERTEX
  8
MMIC_Label
  10
126.84
  20
286.43
  0
VERTEX
  8
MMIC_Label
  10
124.53
  20
285.77
  0
VERTEX
  8
MMIC_Label
  10
121.89
  20
285.44
  0
SEQEND
  0
POLYLINE
  8
MMIC_Label
  70
1
  66
1
  0
VERTEX
  8
MMIC_Label
  10
1718.2
  20
2048.1
  0
VERTEX
  8
MMIC_Label
  10
1703.2
  20
2048.1
  0
VERTEX
  8
MMIC_Label
  10
1703.2
  20
2038.5
  0
VERTEX
  8
MMIC_Label
  10
1698.2
  20
2038.5
  0
VERTEX
  8
MMIC_Label
  10
1698.2
  20
2048.1
  0
VERTEX
  8
MMIC_Label
  10
1673.2
  20
2048.1
  0
VERTEX
  8
MMIC_Label
  10
1673.2
  20
2038.5
  0
VERTEX
  8
MMIC_Label
  10
1668.2
  20
2038.5
  0
VERTEX
  8
MMIC_Label
  10
1668.2
  20
2048.1
  0
VERTEX
  8
MMIC_Label
  10
1643.2
  20
2048.1
  0
VERTEX
  8
MMIC_Label
  10
1643.2
  20
2038.5
  0
VERTEX
  8
MMIC_Label
  10
1638.2
  20
2038.5
  0
VERTEX
  8
MMIC_Label
  10
1638.2
  20
2048.1
  0
VERTEX
  8
MMIC_Label
  10
1613.2
  20
2048.1
  0
VERTEX
  8
MMIC_Label
  10
1613.2
  20
2038.5
  0
VERTEX
  8
MMIC_Label
  10
1608.2
  20
2038.5
  0
VERTEX
  8
MMIC_Label
  10
1608.2
  20
2048.1
  0
VERTEX
  8
MMIC_Label
  10
1583.2
  20
2048.1
  0
VERTEX
  8
MMIC_Label
  10
1583.2
  20
2038.5
  0
VERTEX
  8
MMIC_Label
  10
1578.2
  20
2038.5
  0
VERTEX
  8
MMIC_Label
  10
1578.2
  20
2048.1
  0
VERTEX
  8
MMIC_Label
  10
1563.2
  20
2048.1
  0
VERTEX
  8
MMIC_Label
  10
1563.2
  20
1983.7
  0
VERTEX
  8
MMIC_Label
  10
1578.2
  20
1983.7
  0
VERTEX
  8
MMIC_Label
  10
1578.2
  20
1994.1
  0
VERTEX
  8
MMIC_Label
  10
1583.2
  20
1994.1
  0
VERTEX
  8
MMIC_Label
  10
1583.2
  20
1983.7
  0
VERTEX
  8
MMIC_Label
  10
1608.2
  20
1983.7
  0
VERTEX
  8
MMIC_Label
  10
1608.2
  20
1994.1
  0
VERTEX
  8
MMIC_Label
  10
1613.2
  20
1994.1
  0
VERTEX
  8
MMIC_Label
  10
1613.2
  20
1983.7
  0
VERTEX
  8
MMIC_Label
  10
1638.2
  20
1983.7
  0
VERTEX
  8
MMIC_Label
  10
1638.2
  20
1994.1
  0
VERTEX
  8
MMIC_Label
  10
1643.2
  20
1994.1
  0
VERTEX
  8
MMIC_Label
  10
1643.2
  20
1983.7
  0
VERTEX
  8
MMIC_Label
  10
1668.2
  20
1983.7
  0
VERTEX
  8
MMIC_Label
  10
1668.2
  20
1994.1
  0
VERTEX
  8
MMIC_Label
  10
1673.2
  20
1994.1
  0
VERTEX
  8
MMIC_Label
  10
1673.2
  20
1983.7
  0
VERTEX
  8
MMIC_Label
  10
1698.2
  20
1983.7
  0
VERTEX
  8
MMIC_Label
  10
1698.2
  20
1994.1
  0
VERTEX
  8
MMIC_Label
  10
1703.2
  20
1994.1
  0
VERTEX
  8
MMIC_Label
  10
1703.2
  20
1983.7
  0
VERTEX
  8
MMIC_Label
  10
1718.2
  20
1983.7
  0
SEQEND
  0
POLYLINE
  8
MMIC_Label
  70
1
  66
1
  0
VERTEX
  8
MMIC_Label
  10
1533.2
  20
2048.1
  0
VERTEX
  8
MMIC_Label
  10
1548.2
  20
2048.1
  0
VERTEX
  8
MMIC_Label
  10
1548.2
  20
2043.1
  0
VERTEX
  8
MMIC_Label
  10
1533.2
  20
2043.1
  0
SEQEND
  0
POLYLINE
  8
MMIC_Label
  70
1
  66
1
  0
VERTEX
  8
MMIC_Label
  10
69.82
  20
307.88
  0
VERTEX
  8
MMIC_Label
  10
69.16
  20
310.19
  0
VERTEX
  8
MMIC_Label
  10
68.17
  20
312.5
  0
VERTEX
  8
MMIC_Label
  10
66.85
  20
314.15
  0
VERTEX
  8
MMIC_Label
  10
65.2
  20
315.8
  0
VERTEX
  8
MMIC_Label
  10
63.55
  20
317.12
  0
VERTEX
  8
MMIC_Label
  10
61.24
  20
318.11
  0
VERTEX
  8
MMIC_Label
  10
59.26
  20
318.44
  0
VERTEX
  8
MMIC_Label
  10
53.98
  20
318.44
  0
VERTEX
  8
MMIC_Label
  10
51.67
  20
318.11
  0
VERTEX
  8
MMIC_Label
  10
49.36
  20
316.79
  0
VERTEX
  8
MMIC_Label
  10
47.71
  20
315.47
  0
VERTEX
  8
MMIC_Label
  10
46.06
  20
313.82
  0
VERTEX
  8
MMIC_Label
  10
44.74
  20
311.51
  0
VERTEX
  8
MMIC_Label
  10
43.75
  20
309.53
  0
VERTEX
  8
MMIC_Label
  10
43.09
  20
306.89
  0
VERTEX
  8
MMIC_Label
  10
42.76
  20
304.58
  0
VERTEX
  8
MMIC_Label
  10
42.43
  20
301.94
  0
VERTEX
  8
MMIC_Label
  10
42.76
  20
299.3
  0
VERTEX
  8
MMIC_Label
  10
43.09
  20
296.99
  0
VERTEX
  8
MMIC_Label
  10
43.75
  20
294.35
  0
VERTEX
  8
MMIC_Label
  10
44.74
  20
292.37
  0
VERTEX
  8
MMIC_Label
  10
46.06
  20
290.06
  0
VERTEX
  8
MMIC_Label
  10
47.71
  20
288.41
  0
VERTEX
  8
MMIC_Label
  10
49.36
  20
287.09
  0
VERTEX
  8
MMIC_Label
  10
51.67
  20
285.77
  0
VERTEX
  8
MMIC_Label
  10
53.98
  20
285.44
  0
VERTEX
  8
MMIC_Label
  10
58.6
  20
285.44
  0
VERTEX
  8
MMIC_Label
  10
60.58
  20
285.77
  0
VERTEX
  8
MMIC_Label
  10
63.88
  20
287.75
  0
VERTEX
  8
MMIC_Label
  10
64.87
  20
289.4
  0
VERTEX
  8
MMIC_Label
  10
66.19
  20
285.44
  0
VERTEX
  8
MMIC_Label
  10
69.82
  20
285.44
  0
VERTEX
  8
MMIC_Label
  10
69.82
  20
301.94
  0
VERTEX
  8
MMIC_Label
  10
57.28
  20
301.94
  0
VERTEX
  8
MMIC_Label
  10
57.28
  20
296.99
  0
VERTEX
  8
MMIC_Label
  10
63.22
  20
296.99
  0
VERTEX
  8
MMIC_Label
  10
62.89
  20
295.34
  0
VERTEX
  8
MMIC_Label
  10
62.23
  20
293.69
  0
VERTEX
  8
MMIC_Label
  10
61.24
  20
292.37
  0
VERTEX
  8
MMIC_Label
  10
59.92
  20
291.38
  0
VERTEX
  8
MMIC_Label
  10
58.6
  20
290.72
  0
VERTEX
  8
MMIC_Label
  10
56.62
  20
290.39
  0
VERTEX
  8
MMIC_Label
  10
54.97
  20
290.72
  0
VERTEX
  8
MMIC_Label
  10
53.32
  20
291.38
  0
VERTEX
  8
MMIC_Label
  10
52
  20
292.37
  0
VERTEX
  8
MMIC_Label
  10
50.68
  20
294.02
  0
VERTEX
  8
MMIC_Label
  10
50.02
  20
295.67
  0
VERTEX
  8
MMIC_Label
  10
49.36
  20
297.65
  0
VERTEX
  8
MMIC_Label
  10
49.03
  20
299.63
  0
VERTEX
  8
MMIC_Label
  10
49.03
  20
304.25
  0
VERTEX
  8
MMIC_Label
  10
49.36
  20
306.23
  0
VERTEX
  8
MMIC_Label
  10
50.02
  20
308.21
  0
VERTEX
  8
MMIC_Label
  10
50.68
  20
309.86
  0
VERTEX
  8
MMIC_Label
  10
52
  20
311.51
  0
VERTEX
  8
MMIC_Label
  10
53.32
  20
312.5
  0
VERTEX
  8
MMIC_Label
  10
54.97
  20
313.16
  0
VERTEX
  8
MMIC_Label
  10
56.62
  20
313.49
  0
VERTEX
  8
MMIC_Label
  10
58.6
  20
313.16
  0
VERTEX
  8
MMIC_Label
  10
60.25
  20
312.17
  0
VERTEX
  8
MMIC_Label
  10
61.57
  20
311.18
  0
VERTEX
  8
MMIC_Label
  10
62.56
  20
309.53
  0
VERTEX
  8
MMIC_Label
  10
63.22
  20
307.88
  0
SEQEND
  0
POLYLINE
  8
MMIC_Label
  70
1
  66
1
  0
VERTEX
  8
MMIC_Label
  10
1603.2
  20
2038.8
  0
VERTEX
  8
MMIC_Label
  10
1618.2
  20
2038.8
  0
VERTEX
  8
MMIC_Label
  10
1618.2
  20
2023.8
  0
VERTEX
  8
MMIC_Label
  10
1603.2
  20
2023.8
  0
SEQEND
  0
POLYLINE
  8
MMIC_Label
  70
1
  66
1
  0
VERTEX
  8
MMIC_Label
  10
1533.2
  20
2106.1
  0
VERTEX
  8
MMIC_Label
  10
1543.1
  20
2139.1
  0
VERTEX
  8
MMIC_Label
  10
1550.69
  20
2139.1
  0
VERTEX
  8
MMIC_Label
  10
1560.59
  20
2106.1
  0
VERTEX
  8
MMIC_Label
  10
1553.66
  20
2106.1
  0
VERTEX
  8
MMIC_Label
  10
1552.01
  20
2112.7
  0
VERTEX
  8
MMIC_Label
  10
1542.11
  20
2112.7
  0
VERTEX
  8
MMIC_Label
  10
1540.46
  20
2106.1
  0
SEQEND
  0
POLYLINE
  8
MMIC_Label
  70
1
  66
1
  0
VERTEX
  8
MMIC_Label
  10
1556.8
  20
2033.9
  0
VERTEX
  8
MMIC_Label
  10
1556.8
  20
2036
  0
VERTEX
  8
MMIC_Label
  10
1555.7
  20
2037.9
  0
VERTEX
  8
MMIC_Label
  10
1554.5
  20
2038.9
  0
VERTEX
  8
MMIC_Label
  10
1551.9
  20
2039.8
  0
VERTEX
  8
MMIC_Label
  10
1543.7
  20
2039.8
  0
VERTEX
  8
MMIC_Label
  10
1543.7
  20
2023.3
  0
VERTEX
  8
MMIC_Label
  10
1546.7
  20
2023.3
  0
VERTEX
  8
MMIC_Label
  10
1546.7
  20
2036.8
  0
VERTEX
  8
MMIC_Label
  10
1551.4
  20
2036.8
  0
VERTEX
  8
MMIC_Label
  10
1553
  20
2036.2
  0
VERTEX
  8
MMIC_Label
  10
1553.3
  20
2036
  0
VERTEX
  8
MMIC_Label
  10
1553.8
  20
2035.2
  0
VERTEX
  8
MMIC_Label
  10
1553.8
  20
2034.6
  0
VERTEX
  8
MMIC_Label
  10
1553.1
  20
2033.3
  0
VERTEX
  8
MMIC_Label
  10
1552.9
  20
2033.2
  0
VERTEX
  8
MMIC_Label
  10
1551.3
  20
2032.6
  0
VERTEX
  8
MMIC_Label
  10
1548.2
  20
2032.6
  0
VERTEX
  8
MMIC_Label
  10
1548.2
  20
2029.6
  0
VERTEX
  8
MMIC_Label
  10
1549.5
  20
2029.6
  0
VERTEX
  8
MMIC_Label
  10
1554
  20
2022.5
  0
VERTEX
  8
MMIC_Label
  10
1556.5
  20
2024.1
  0
VERTEX
  8
MMIC_Label
  10
1552.8
  20
2030
  0
VERTEX
  8
MMIC_Label
  10
1554.6
  20
2030.5
  0
VERTEX
  8
MMIC_Label
  10
1555.6
  20
2031.6
  0
SEQEND
  0
POLYLINE
  8
MMIC_Label
  70
1
  66
1
  0
VERTEX
  8
MMIC_Label
  10
75.23
  20
285.44
  0
VERTEX
  8
MMIC_Label
  10
75.23
  20
318.44
  0
VERTEX
  8
MMIC_Label
  10
81.83
  20
318.44
  0
VERTEX
  8
MMIC_Label
  10
96.68
  20
295.34
  0
VERTEX
  8
MMIC_Label
  10
96.68
  20
318.44
  0
VERTEX
  8
MMIC_Label
  10
102.62
  20
318.44
  0
VERTEX
  8
MMIC_Label
  10
102.62
  20
285.44
  0
VERTEX
  8
MMIC_Label
  10
96.68
  20
285.44
  0
VERTEX
  8
MMIC_Label
  10
81.17
  20
308.54
  0
VERTEX
  8
MMIC_Label
  10
81.17
  20
285.44
  0
SEQEND
  0
POLYLINE
  8
MMIC_Label
  70
1
  66
1
  0
VERTEX
  8
MMIC_Label
  10
1755.57
  20
72.48
  0
VERTEX
  8
MMIC_Label
  10
1755.9
  20
74.13
  0
VERTEX
  8
MMIC_Label
  10
1756.56
  20
75.78
  0
VERTEX
  8
MMIC_Label
  10
1757.55
  20
76.77
  0
VERTEX
  8
MMIC_Label
  10
1758.87
  20
77.76
  0
VERTEX
  8
MMIC_Label
  10
1760.19
  20
78.09
  0
VERTEX
  8
MMIC_Label
  10
1761.84
  20
78.42
  0
VERTEX
  8
MMIC_Label
  10
1763.49
  20
78.42
  0
VERTEX
  8
MMIC_Label
  10
1764.81
  20
78.09
  0
VERTEX
  8
MMIC_Label
  10
1766.46
  20
77.76
  0
VERTEX
  8
MMIC_Label
  10
1768.44
  20
75.78
  0
VERTEX
  8
MMIC_Label
  10
1769.1
  20
74.13
  0
VERTEX
  8
MMIC_Label
  10
1769.43
  20
72.48
  0
VERTEX
  8
MMIC_Label
  10
1769.1
  20
70.83
  0
VERTEX
  8
MMIC_Label
  10
1768.44
  20
69.51
  0
VERTEX
  8
MMIC_Label
  10
1767.45
  20
68.19
  0
VERTEX
  8
MMIC_Label
  10
1766.46
  20
67.2
  0
VERTEX
  8
MMIC_Label
  10
1764.81
  20
66.87
  0
VERTEX
  8
MMIC_Label
  10
1763.49
  20
66.54
  0
VERTEX
  8
MMIC_Label
  10
1761.84
  20
66.54
  0
VERTEX
  8
MMIC_Label
  10
1760.19
  20
66.87
  0
VERTEX
  8
MMIC_Label
  10
1758.87
  20
67.2
  0
VERTEX
  8
MMIC_Label
  10
1757.55
  20
68.19
  0
VERTEX
  8
MMIC_Label
  10
1756.56
  20
69.51
  0
VERTEX
  8
MMIC_Label
  10
1755.9
  20
70.83
  0
SEQEND
  0
POLYLINE
  8
MMIC_Label
  70
1
  66
1
  0
VERTEX
  8
MMIC_Label
  10
1604.74
  20
2068.1
  0
VERTEX
  8
MMIC_Label
  10
1605.07
  20
2072.72
  0
VERTEX
  8
MMIC_Label
  10
1606.06
  20
2076.68
  0
VERTEX
  8
MMIC_Label
  10
1607.71
  20
2080.64
  0
VERTEX
  8
MMIC_Label
  10
1609.69
  20
2084.27
  0
VERTEX
  8
MMIC_Label
  10
1612
  20
2087.57
  0
VERTEX
  8
MMIC_Label
  10
1614.31
  20
2090.54
  0
VERTEX
  8
MMIC_Label
  10
1616.95
  20
2093.18
  0
VERTEX
  8
MMIC_Label
  10
1619.59
  20
2095.49
  0
VERTEX
  8
MMIC_Label
  10
1598.8
  20
2095.49
  0
VERTEX
  8
MMIC_Label
  10
1598.8
  20
2101.1
  0
VERTEX
  8
MMIC_Label
  10
1626.19
  20
2101.1
  0
VERTEX
  8
MMIC_Label
  10
1626.19
  20
2095.49
  0
VERTEX
  8
MMIC_Label
  10
1623.22
  20
2093.18
  0
VERTEX
  8
MMIC_Label
  10
1620.25
  20
2090.21
  0
VERTEX
  8
MMIC_Label
  10
1615.63
  20
2083.61
  0
VERTEX
  8
MMIC_Label
  10
1613.98
  20
2079.98
  0
VERTEX
  8
MMIC_Label
  10
1612.66
  20
2076.35
  0
VERTEX
  8
MMIC_Label
  10
1612
  20
2072.06
  0
VERTEX
  8
MMIC_Label
  10
1611.34
  20
2068.1
  0
SEQEND
  0
POLYLINE
  8
MMIC_Label
  70
1
  66
1
  0
VERTEX
  8
MMIC_Label
  10
1688.2
  20
1988.7
  0
VERTEX
  8
MMIC_Label
  10
1673.2
  20
1988.7
  0
VERTEX
  8
MMIC_Label
  10
1673.2
  20
1983.7
  0
VERTEX
  8
MMIC_Label
  10
1688.2
  20
1983.7
  0
SEQEND
  0
POLYLINE
  8
MMIC_Label
  70
1
  66
1
  0
VERTEX
  8
MMIC_Label
  10
1718.2
  20
1988.7
  0
VERTEX
  8
MMIC_Label
  10
1703.2
  20
1988.7
  0
VERTEX
  8
MMIC_Label
  10
1703.2
  20
1983.7
  0
VERTEX
  8
MMIC_Label
  10
1718.2
  20
1983.7
  0
SEQEND
  0
POLYLINE
  8
MMIC_Label
  70
1
  66
1
  0
VERTEX
  8
MMIC_Label
  10
1548.2
  20
1988.7
  0
VERTEX
  8
MMIC_Label
  10
1533.2
  20
1988.7
  0
VERTEX
  8
MMIC_Label
  10
1533.2
  20
1983.7
  0
VERTEX
  8
MMIC_Label
  10
1548.2
  20
1983.7
  0
SEQEND
  0
POLYLINE
  8
MMIC_Label
  70
1
  66
1
  0
VERTEX
  8
MMIC_Label
  10
1573.2
  20
2008.8
  0
VERTEX
  8
MMIC_Label
  10
1588.2
  20
2008.8
  0
VERTEX
  8
MMIC_Label
  10
1588.2
  20
1993.8
  0
VERTEX
  8
MMIC_Label
  10
1573.2
  20
1993.8
  0
SEQEND
  0
POLYLINE
  8
MMIC_Label
  70
1
  66
1
  0
VERTEX
  8
MMIC_Label
  10
1718.2
  20
1983.7
  0
VERTEX
  8
MMIC_Label
  10
1718.2
  20
2048.1
  0
VERTEX
  8
MMIC_Label
  10
1713.2
  20
2048.1
  0
VERTEX
  8
MMIC_Label
  10
1713.2
  20
1983.7
  0
SEQEND
  0
POLYLINE
  8
MMIC_Label
  70
1
  66
1
  0
VERTEX
  8
MMIC_Label
  10
1795.3
  20
2426.015
  0
VERTEX
  8
MMIC_Label
  10
1793.65
  20
2426.345
  0
VERTEX
  8
MMIC_Label
  10
1792.33
  20
2427.005
  0
VERTEX
  8
MMIC_Label
  10
1791.34
  20
2427.995
  0
VERTEX
  8
MMIC_Label
  10
1801.24
  20
2441.855
  0
VERTEX
  8
MMIC_Label
  10
1801.57
  20
2439.875
  0
VERTEX
  8
MMIC_Label
  10
1801.9
  20
2437.565
  0
VERTEX
  8
MMIC_Label
  10
1801.57
  20
2435.255
  0
VERTEX
  8
MMIC_Label
  10
1800.91
  20
2431.295
  0
VERTEX
  8
MMIC_Label
  10
1800.25
  20
2429.645
  0
VERTEX
  8
MMIC_Label
  10
1799.26
  20
2427.995
  0
VERTEX
  8
MMIC_Label
  10
1797.94
  20
2427.005
  0
VERTEX
  8
MMIC_Label
  10
1796.62
  20
2426.345
  0
SEQEND
  0
POLYLINE
  8
MMIC_Label
  70
1
  66
1
  0
VERTEX
  8
MMIC_Label
  10
1651.603
  20
1965.13
  0
VERTEX
  8
MMIC_Label
  10
1644.293
  20
1965.13
  0
VERTEX
  8
MMIC_Label
  10
1647.692
  20
1972.42
  0
VERTEX
  8
MMIC_Label
  10
1647.94
  20
1972.42
  0
VERTEX
  8
MMIC_Label
  10
1647.94
  20
1967.59
  0
VERTEX
  8
MMIC_Label
  10
1650.459
  20
1967.59
  0
VERTEX
  8
MMIC_Label
  10
1650.459
  20
1978.29
  0
VERTEX
  8
MMIC_Label
  10
1648.28
  20
1978.29
  0
VERTEX
  8
MMIC_Label
  10
1643.746
  20
1968.703
  0
VERTEX
  8
MMIC_Label
  10
1642.114
  20
1965.252
  0
VERTEX
  8
MMIC_Label
  10
1642.114
  20
1962.879
  0
VERTEX
  8
MMIC_Label
  10
1647.27
  20
1962.879
  0
VERTEX
  8
MMIC_Label
  10
1647.27
  20
1958.09
  0
VERTEX
  8
MMIC_Label
  10
1649.789
  20
1958.09
  0
VERTEX
  8
MMIC_Label
  10
1649.789
  20
1962.879
  0
VERTEX
  8
MMIC_Label
  10
1651.603
  20
1962.879
  0
SEQEND
  0
POLYLINE
  8
MMIC_Label
  70
1
  66
1
  0
VERTEX
  8
MMIC_Label
  10
1641.8
  20
1958.19
  0
VERTEX
  8
MMIC_Label
  10
1637.621
  20
1965.826
  0
VERTEX
  8
MMIC_Label
  10
1641.504
  20
1972.619
  0
VERTEX
  8
MMIC_Label
  10
1638.679
  20
1972.619
  0
VERTEX
  8
MMIC_Label
  10
1636.786
  20
1969.209
  0
VERTEX
  8
MMIC_Label
  10
1636.394
  20
1968.516
  0
VERTEX
  8
MMIC_Label
  10
1635.929
  20
1967.619
  0
VERTEX
  8
MMIC_Label
  10
1635.632
  20
1968.272
  0
VERTEX
  8
MMIC_Label
  10
1635.146
  20
1969.236
  0
VERTEX
  8
MMIC_Label
  10
1633.421
  20
1972.619
  0
VERTEX
  8
MMIC_Label
  10
1630.491
  20
1972.619
  0
VERTEX
  8
MMIC_Label
  10
1634.289
  20
1965.69
  0
VERTEX
  8
MMIC_Label
  10
1630.184
  20
1958.19
  0
VERTEX
  8
MMIC_Label
  10
1633.04
  20
1958.19
  0
VERTEX
  8
MMIC_Label
  10
1635.992
  20
1963.883
  0
VERTEX
  8
MMIC_Label
  10
1636.606
  20
1962.674
  0
VERTEX
  8
MMIC_Label
  10
1638.912
  20
1958.19
  0
SEQEND
  0
POLYLINE
  8
MMIC_Label
  70
1
  66
1
  0
VERTEX
  8
MMIC_Label
  10
146.04
  20
1981.37
  0
VERTEX
  8
MMIC_Label
  10
179.04
  20
1981.37
  0
VERTEX
  8
MMIC_Label
  10
179.04
  20
1973.12
  0
VERTEX
  8
MMIC_Label
  10
156.93
  20
1967.51
  0
VERTEX
  8
MMIC_Label
  10
179.04
  20
1962.23
  0
VERTEX
  8
MMIC_Label
  10
179.04
  20
1953.98
  0
VERTEX
  8
MMIC_Label
  10
146.04
  20
1953.98
  0
VERTEX
  8
MMIC_Label
  10
146.04
  20
1959.26
  0
VERTEX
  8
MMIC_Label
  10
173.43
  20
1959.26
  0
VERTEX
  8
MMIC_Label
  10
151.65
  20
1965.53
  0
VERTEX
  8
MMIC_Label
  10
151.65
  20
1969.82
  0
VERTEX
  8
MMIC_Label
  10
173.43
  20
1976.42
  0
VERTEX
  8
MMIC_Label
  10
146.04
  20
1976.42
  0
SEQEND
  0
POLYLINE
  8
MMIC_Label
  70
1
  66
1
  0
VERTEX
  8
MMIC_Label
  10
1663.2
  20
2038.8
  0
VERTEX
  8
MMIC_Label
  10
1678.2
  20
2038.8
  0
VERTEX
  8
MMIC_Label
  10
1678.2
  20
2023.8
  0
VERTEX
  8
MMIC_Label
  10
1663.2
  20
2023.8
  0
SEQEND
  0
POLYLINE
  8
MMIC_Label
  70
1
  66
1
  0
VERTEX
  8
MMIC_Label
  10
1604.74
  20
2068.1
  0
VERTEX
  8
MMIC_Label
  10
1605.07
  20
2072.72
  0
VERTEX
  8
MMIC_Label
  10
1606.06
  20
2076.68
  0
VERTEX
  8
MMIC_Label
  10
1607.71
  20
2080.64
  0
VERTEX
  8
MMIC_Label
  10
1609.69
  20
2084.27
  0
VERTEX
  8
MMIC_Label
  10
1612
  20
2087.57
  0
VERTEX
  8
MMIC_Label
  10
1614.31
  20
2090.54
  0
VERTEX
  8
MMIC_Label
  10
1616.95
  20
2093.18
  0
VERTEX
  8
MMIC_Label
  10
1619.59
  20
2095.49
  0
VERTEX
  8
MMIC_Label
  10
1598.8
  20
2095.49
  0
VERTEX
  8
MMIC_Label
  10
1598.8
  20
2101.1
  0
VERTEX
  8
MMIC_Label
  10
1626.19
  20
2101.1
  0
VERTEX
  8
MMIC_Label
  10
1626.19
  20
2095.49
  0
VERTEX
  8
MMIC_Label
  10
1623.22
  20
2093.18
  0
VERTEX
  8
MMIC_Label
  10
1620.25
  20
2090.21
  0
VERTEX
  8
MMIC_Label
  10
1615.63
  20
2083.61
  0
VERTEX
  8
MMIC_Label
  10
1613.98
  20
2079.98
  0
VERTEX
  8
MMIC_Label
  10
1612.66
  20
2076.35
  0
VERTEX
  8
MMIC_Label
  10
1612
  20
2072.06
  0
VERTEX
  8
MMIC_Label
  10
1611.34
  20
2068.1
  0
SEQEND
  0
POLYLINE
  8
MMIC_Label
  70
1
  66
1
  0
VERTEX
  8
MMIC_Label
  10
1557.4
  20
1997
  0
VERTEX
  8
MMIC_Label
  10
1554.7
  20
1998.4
  0
VERTEX
  8
MMIC_Label
  10
1554
  20
1997.1
  0
VERTEX
  8
MMIC_Label
  10
1553
  20
1996.1
  0
VERTEX
  8
MMIC_Label
  10
1552.1
  20
1995.6
  0
VERTEX
  8
MMIC_Label
  10
1549.8
  20
1995.6
  0
VERTEX
  8
MMIC_Label
  10
1549
  20
1996
  0
VERTEX
  8
MMIC_Label
  10
1548
  20
1997.2
  0
VERTEX
  8
MMIC_Label
  10
1547.4
  20
1998.3
  0
VERTEX
  8
MMIC_Label
  10
1546.7
  20
2000.2
  0
VERTEX
  8
MMIC_Label
  10
1546.7
  20
2001.6
  0
VERTEX
  8
MMIC_Label
  10
1547.4
  20
2003.4
  0
VERTEX
  8
MMIC_Label
  10
1548
  20
2004.6
  0
VERTEX
  8
MMIC_Label
  10
1549
  20
2005.6
  0
VERTEX
  8
MMIC_Label
  10
1549.9
  20
2006.1
  0
VERTEX
  8
MMIC_Label
  10
1552.2
  20
2006.1
  0
VERTEX
  8
MMIC_Label
  10
1552.9
  20
2005.6
  0
VERTEX
  8
MMIC_Label
  10
1554.1
  20
2004.6
  0
VERTEX
  8
MMIC_Label
  10
1554.7
  20
2003.3
  0
VERTEX
  8
MMIC_Label
  10
1557.4
  20
2004.7
  0
VERTEX
  8
MMIC_Label
  10
1556.5
  20
2006.4
  0
VERTEX
  8
MMIC_Label
  10
1554.7
  20
2008.1
  0
VERTEX
  8
MMIC_Label
  10
1553
  20
2009.1
  0
VERTEX
  8
MMIC_Label
  10
1549.2
  20
2009.1
  0
VERTEX
  8
MMIC_Label
  10
1547.2
  20
2008.1
  0
VERTEX
  8
MMIC_Label
  10
1545.5
  20
2006.4
  0
VERTEX
  8
MMIC_Label
  10
1544.6
  20
2004.6
  0
VERTEX
  8
MMIC_Label
  10
1543.7
  20
2002.2
  0
VERTEX
  8
MMIC_Label
  10
1543.7
  20
1999.7
  0
VERTEX
  8
MMIC_Label
  10
1544.6
  20
1997.1
  0
VERTEX
  8
MMIC_Label
  10
1545.5
  20
1995.5
  0
VERTEX
  8
MMIC_Label
  10
1547.1
  20
1993.7
  0
VERTEX
  8
MMIC_Label
  10
1549
  20
1992.6
  0
VERTEX
  8
MMIC_Label
  10
1552.8
  20
1992.6
  0
VERTEX
  8
MMIC_Label
  10
1554.8
  20
1993.6
  0
VERTEX
  8
MMIC_Label
  10
1556.5
  20
1995.3
  0
SEQEND
  0
POLYLINE
  8
MMIC_Label
  70
1
  66
1
  0
VERTEX
  8
MMIC_Label
  10
1563.2
  20
2048.1
  0
VERTEX
  8
MMIC_Label
  10
1718.2
  20
2048.1
  0
VERTEX
  8
MMIC_Label
  10
1718.2
  20
1983.7
  0
VERTEX
  8
MMIC_Label
  10
1563.2
  20
1983.7
  0
SEQEND
  0
POLYLINE
  8
MMIC_Label
  70
1
  66
1
  0
VERTEX
  8
MMIC_Label
  10
169.8
  20
2020.57
  0
VERTEX
  8
MMIC_Label
  10
172.11
  20
2020.9
  0
VERTEX
  8
MMIC_Label
  10
174.09
  20
2021.89
  0
VERTEX
  8
MMIC_Label
  10
175.74
  20
2023.21
  0
VERTEX
  8
MMIC_Label
  10
177.06
  20
2024.86
  0
VERTEX
  8
MMIC_Label
  10
178.05
  20
2026.84
  0
VERTEX
  8
MMIC_Label
  10
179.04
  20
2029.15
  0
VERTEX
  8
MMIC_Label
  10
179.04
  20
2037.4
  0
VERTEX
  8
MMIC_Label
  10
177.72
  20
2041.36
  0
VERTEX
  8
MMIC_Label
  10
176.4
  20
2043.34
  0
VERTEX
  8
MMIC_Label
  10
174.75
  20
2044.66
  0
VERTEX
  8
MMIC_Label
  10
172.77
  20
2045.65
  0
VERTEX
  8
MMIC_Label
  10
170.13
  20
2045.98
  0
VERTEX
  8
MMIC_Label
  10
167.82
  20
2045.32
  0
VERTEX
  8
MMIC_Label
  10
165.51
  20
2044.33
  0
VERTEX
  8
MMIC_Label
  10
163.86
  20
2042.68
  0
VERTEX
  8
MMIC_Label
  10
162.54
  20
2041.03
  0
VERTEX
  8
MMIC_Label
  10
161.55
  20
2039.05
  0
VERTEX
  8
MMIC_Label
  10
160.89
  20
2037.07
  0
VERTEX
  8
MMIC_Label
  10
158.58
  20
2031.13
  0
VERTEX
  8
MMIC_Label
  10
157.92
  20
2028.49
  0
VERTEX
  8
MMIC_Label
  10
155.94
  20
2026.51
  0
VERTEX
  8
MMIC_Label
  10
154.29
  20
2026.18
  0
VERTEX
  8
MMIC_Label
  10
152.64
  20
2026.51
  0
VERTEX
  8
MMIC_Label
  10
151.65
  20
2027.83
  0
VERTEX
  8
MMIC_Label
  10
150.99
  20
2030.47
  0
VERTEX
  8
MMIC_Label
  10
150.99
  20
2033.11
  0
VERTEX
  8
MMIC_Label
  10
151.65
  20
2036.41
  0
VERTEX
  8
MMIC_Label
  10
152.31
  20
2037.73
  0
VERTEX
  8
MMIC_Label
  10
153.3
  20
2039.05
  0
VERTEX
  8
MMIC_Label
  10
154.62
  20
2040.04
  0
VERTEX
  8
MMIC_Label
  10
156.6
  20
2040.37
  0
VERTEX
  8
MMIC_Label
  10
156.6
  20
2046.97
  0
VERTEX
  8
MMIC_Label
  10
153.96
  20
2046.64
  0
VERTEX
  8
MMIC_Label
  10
151.65
  20
2045.65
  0
VERTEX
  8
MMIC_Label
  10
149.67
  20
2044
  0
VERTEX
  8
MMIC_Label
  10
148.35
  20
2042.35
  0
VERTEX
  8
MMIC_Label
  10
147.03
  20
2040.04
  0
VERTEX
  8
MMIC_Label
  10
146.04
  20
2038.06
  0
VERTEX
  8
MMIC_Label
  10
146.04
  20
2028.82
  0
VERTEX
  8
MMIC_Label
  10
146.37
  20
2026.51
  0
VERTEX
  8
MMIC_Label
  10
147.36
  20
2024.53
  0
VERTEX
  8
MMIC_Label
  10
148.68
  20
2022.55
  0
VERTEX
  8
MMIC_Label
  10
150.33
  20
2020.9
  0
VERTEX
  8
MMIC_Label
  10
152.31
  20
2019.91
  0
VERTEX
  8
MMIC_Label
  10
154.95
  20
2019.58
  0
VERTEX
  8
MMIC_Label
  10
157.26
  20
2019.91
  0
VERTEX
  8
MMIC_Label
  10
159.24
  20
2020.57
  0
VERTEX
  8
MMIC_Label
  10
160.89
  20
2021.89
  0
VERTEX
  8
MMIC_Label
  10
162.21
  20
2023.54
  0
VERTEX
  8
MMIC_Label
  10
163.2
  20
2025.52
  0
VERTEX
  8
MMIC_Label
  10
164.19
  20
2027.17
  0
VERTEX
  8
MMIC_Label
  10
164.85
  20
2028.82
  0
VERTEX
  8
MMIC_Label
  10
166.83
  20
2035.42
  0
VERTEX
  8
MMIC_Label
  10
167.49
  20
2036.74
  0
VERTEX
  8
MMIC_Label
  10
168.15
  20
2037.73
  0
VERTEX
  8
MMIC_Label
  10
169.14
  20
2038.72
  0
VERTEX
  8
MMIC_Label
  10
170.79
  20
2039.38
  0
VERTEX
  8
MMIC_Label
  10
172.44
  20
2038.72
  0
VERTEX
  8
MMIC_Label
  10
173.43
  20
2037.4
  0
VERTEX
  8
MMIC_Label
  10
173.76
  20
2036.08
  0
VERTEX
  8
MMIC_Label
  10
174.09
  20
2034.43
  0
VERTEX
  8
MMIC_Label
  10
174.09
  20
2033.11
  0
VERTEX
  8
MMIC_Label
  10
173.76
  20
2031.79
  0
VERTEX
  8
MMIC_Label
  10
173.43
  20
2030.14
  0
VERTEX
  8
MMIC_Label
  10
172.77
  20
2028.49
  0
VERTEX
  8
MMIC_Label
  10
171.45
  20
2027.17
  0
VERTEX
  8
MMIC_Label
  10
169.8
  20
2026.51
  0
SEQEND
  0
POLYLINE
  8
MMIC_Label
  70
1
  66
1
  0
VERTEX
  8
MMIC_Label
  10
1651.603
  20
1965.13
  0
VERTEX
  8
MMIC_Label
  10
1644.293
  20
1965.13
  0
VERTEX
  8
MMIC_Label
  10
1647.692
  20
1972.42
  0
VERTEX
  8
MMIC_Label
  10
1647.94
  20
1972.42
  0
VERTEX
  8
MMIC_Label
  10
1647.94
  20
1967.59
  0
VERTEX
  8
MMIC_Label
  10
1650.459
  20
1967.59
  0
VERTEX
  8
MMIC_Label
  10
1650.459
  20
1978.29
  0
VERTEX
  8
MMIC_Label
  10
1648.28
  20
1978.29
  0
VERTEX
  8
MMIC_Label
  10
1643.746
  20
1968.703
  0
VERTEX
  8
MMIC_Label
  10
1642.114
  20
1965.252
  0
VERTEX
  8
MMIC_Label
  10
1642.114
  20
1962.879
  0
VERTEX
  8
MMIC_Label
  10
1647.27
  20
1962.879
  0
VERTEX
  8
MMIC_Label
  10
1647.27
  20
1958.09
  0
VERTEX
  8
MMIC_Label
  10
1649.789
  20
1958.09
  0
VERTEX
  8
MMIC_Label
  10
1649.789
  20
1962.879
  0
VERTEX
  8
MMIC_Label
  10
1651.603
  20
1962.879
  0
SEQEND
  0
POLYLINE
  8
MMIC_Label
  70
1
  66
1
  0
VERTEX
  8
MMIC_Label
  10
1703.225
  20
1978.29
  0
VERTEX
  8
MMIC_Label
  10
1700.809
  20
1978.29
  0
VERTEX
  8
MMIC_Label
  10
1699.483
  20
1974.851
  0
VERTEX
  8
MMIC_Label
  10
1698.944
  20
1974.232
  0
VERTEX
  8
MMIC_Label
  10
1697.312
  20
1973.246
  0
VERTEX
  8
MMIC_Label
  10
1697.312
  20
1970.722
  0
VERTEX
  8
MMIC_Label
  10
1697.336
  20
1970.706
  0
VERTEX
  8
MMIC_Label
  10
1697.361
  20
1970.691
  0
VERTEX
  8
MMIC_Label
  10
1698.352
  20
1971.161
  0
VERTEX
  8
MMIC_Label
  10
1699.477
  20
1972.009
  0
VERTEX
  8
MMIC_Label
  10
1699.481
  20
1972.012
  0
VERTEX
  8
MMIC_Label
  10
1699.763
  20
1972.357
  0
VERTEX
  8
MMIC_Label
  10
1699.763
  20
1972.32
  0
VERTEX
  8
MMIC_Label
  10
1700.691
  20
1972.32
  0
VERTEX
  8
MMIC_Label
  10
1700.691
  20
1958.09
  0
VERTEX
  8
MMIC_Label
  10
1703.225
  20
1958.09
  0
SEQEND
  0
POLYLINE
  8
MMIC_Label
  70
1
  66
1
  0
VERTEX
  8
MMIC_Label
  10
1598.8
  20
2128.21
  0
VERTEX
  8
MMIC_Label
  10
1599.13
  20
2130.52
  0
VERTEX
  8
MMIC_Label
  10
1600.12
  20
2132.83
  0
VERTEX
  8
MMIC_Label
  10
1601.77
  20
2134.81
  0
VERTEX
  8
MMIC_Label
  10
1603.42
  20
2136.46
  0
VERTEX
  8
MMIC_Label
  10
1605.4
  20
2137.78
  0
VERTEX
  8
MMIC_Label
  10
1607.71
  20
2138.77
  0
VERTEX
  8
MMIC_Label
  10
1610.02
  20
2139.1
  0
VERTEX
  8
MMIC_Label
  10
1617.28
  20
2139.1
  0
VERTEX
  8
MMIC_Label
  10
1619.59
  20
2138.44
  0
VERTEX
  8
MMIC_Label
  10
1623.55
  20
2135.8
  0
VERTEX
  8
MMIC_Label
  10
1624.87
  20
2134.15
  0
VERTEX
  8
MMIC_Label
  10
1625.86
  20
2131.84
  0
VERTEX
  8
MMIC_Label
  10
1626.19
  20
2129.2
  0
VERTEX
  8
MMIC_Label
  10
1625.86
  20
2126.89
  0
VERTEX
  8
MMIC_Label
  10
1624.87
  20
2125.24
  0
VERTEX
  8
MMIC_Label
  10
1623.55
  20
2123.59
  0
VERTEX
  8
MMIC_Label
  10
1621.9
  20
2122.27
  0
VERTEX
  8
MMIC_Label
  10
1620.25
  20
2121.61
  0
VERTEX
  8
MMIC_Label
  10
1612.99
  20
2118.31
  0
VERTEX
  8
MMIC_Label
  10
1611.67
  20
2117.65
  0
VERTEX
  8
MMIC_Label
  10
1610.02
  20
2116.66
  0
VERTEX
  8
MMIC_Label
  10
1608.37
  20
2115.34
  0
VERTEX
  8
MMIC_Label
  10
1607.05
  20
2113.69
  0
VERTEX
  8
MMIC_Label
  10
1606.06
  20
2111.71
  0
VERTEX
  8
MMIC_Label
  10
1626.19
  20
2111.71
  0
VERTEX
  8
MMIC_Label
  10
1626.19
  20
2106.1
  0
VERTEX
  8
MMIC_Label
  10
1598.8
  20
2106.1
  0
VERTEX
  8
MMIC_Label
  10
1598.8
  20
2108.74
  0
VERTEX
  8
MMIC_Label
  10
1599.13
  20
2112.04
  0
VERTEX
  8
MMIC_Label
  10
1600.45
  20
2115.01
  0
VERTEX
  8
MMIC_Label
  10
1602.1
  20
2117.32
  0
VERTEX
  8
MMIC_Label
  10
1604.08
  20
2119.3
  0
VERTEX
  8
MMIC_Label
  10
1611.01
  20
2123.26
  0
VERTEX
  8
MMIC_Label
  10
1615.96
  20
2125.24
  0
VERTEX
  8
MMIC_Label
  10
1617.28
  20
2125.9
  0
VERTEX
  8
MMIC_Label
  10
1618.27
  20
2126.89
  0
VERTEX
  8
MMIC_Label
  10
1619.26
  20
2128.21
  0
VERTEX
  8
MMIC_Label
  10
1619.59
  20
2129.86
  0
VERTEX
  8
MMIC_Label
  10
1619.26
  20
2131.51
  0
VERTEX
  8
MMIC_Label
  10
1618.27
  20
2132.5
  0
VERTEX
  8
MMIC_Label
  10
1616.95
  20
2133.49
  0
VERTEX
  8
MMIC_Label
  10
1615.63
  20
2133.82
  0
VERTEX
  8
MMIC_Label
  10
1613.98
  20
2134.15
  0
VERTEX
  8
MMIC_Label
  10
1612.66
  20
2134.15
  0
VERTEX
  8
MMIC_Label
  10
1610.68
  20
2133.82
  0
VERTEX
  8
MMIC_Label
  10
1609.03
  20
2133.49
  0
VERTEX
  8
MMIC_Label
  10
1607.38
  20
2132.5
  0
VERTEX
  8
MMIC_Label
  10
1606.06
  20
2131.51
  0
VERTEX
  8
MMIC_Label
  10
1604.74
  20
2128.21
  0
SEQEND
  0
POLYLINE
  8
MMIC_Label
  70
1
  66
1
  0
VERTEX
  8
MMIC_Label
  10
1648.1
  20
2106.1
  0
VERTEX
  8
MMIC_Label
  10
1648.1
  20
2113.69
  0
VERTEX
  8
MMIC_Label
  10
1631.6
  20
2113.69
  0
VERTEX
  8
MMIC_Label
  10
1631.6
  20
2118.31
  0
VERTEX
  8
MMIC_Label
  10
1647.11
  20
2139.1
  0
VERTEX
  8
MMIC_Label
  10
1654.04
  20
2139.1
  0
VERTEX
  8
MMIC_Label
  10
1654.04
  20
2118.64
  0
VERTEX
  8
MMIC_Label
  10
1658.99
  20
2118.64
  0
VERTEX
  8
MMIC_Label
  10
1658.99
  20
2113.69
  0
VERTEX
  8
MMIC_Label
  10
1654.04
  20
2113.69
  0
VERTEX
  8
MMIC_Label
  10
1654.04
  20
2106.1
  0
SEQEND
  0
POLYLINE
  8
MMIC_Label
  70
1
  66
1
  0
VERTEX
  8
MMIC_Label
  10
1543.1
  20
2117.65
  0
VERTEX
  8
MMIC_Label
  10
1547.06
  20
2131.84
  0
VERTEX
  8
MMIC_Label
  10
1550.69
  20
2117.65
  0
SEQEND
  0
POLYLINE
  8
MMIC_Label
  70
1
  66
1
  0
VERTEX
  8
MMIC_Label
  10
1673.2
  20
2048.1
  0
VERTEX
  8
MMIC_Label
  10
1698.2
  20
2048.1
  0
VERTEX
  8
MMIC_Label
  10
1698.2
  20
2043.1
  0
VERTEX
  8
MMIC_Label
  10
1673.2
  20
2043.1
  0
SEQEND
  0
POLYLINE
  8
MMIC_Label
  70
1
  66
1
  0
VERTEX
  8
MMIC_Label
  10
1795.3
  20
54.99
  0
VERTEX
  8
MMIC_Label
  10
1793.65
  20
55.32
  0
VERTEX
  8
MMIC_Label
  10
1792.33
  20
55.98
  0
VERTEX
  8
MMIC_Label
  10
1791.34
  20
56.97
  0
VERTEX
  8
MMIC_Label
  10
1801.24
  20
70.83
  0
VERTEX
  8
MMIC_Label
  10
1801.57
  20
68.85
  0
VERTEX
  8
MMIC_Label
  10
1801.9
  20
66.54
  0
VERTEX
  8
MMIC_Label
  10
1801.57
  20
64.23
  0
VERTEX
  8
MMIC_Label
  10
1800.91
  20
60.27
  0
VERTEX
  8
MMIC_Label
  10
1800.25
  20
58.62
  0
VERTEX
  8
MMIC_Label
  10
1799.26
  20
56.97
  0
VERTEX
  8
MMIC_Label
  10
1797.94
  20
55.98
  0
VERTEX
  8
MMIC_Label
  10
1796.62
  20
55.32
  0
SEQEND
  0
POLYLINE
  8
MMIC_Label
  70
1
  66
1
  0
VERTEX
  8
MMIC_Label
  10
1718.541
  20
1963.623
  0
VERTEX
  8
MMIC_Label
  10
1717.945
  20
1968.097
  0
VERTEX
  8
MMIC_Label
  10
1717.942
  20
1968.106
  0
VERTEX
  8
MMIC_Label
  10
1716.034
  20
1971.16
  0
VERTEX
  8
MMIC_Label
  10
1711.353
  20
1971.16
  0
VERTEX
  8
MMIC_Label
  10
1711.353
  20
1968.39
  0
VERTEX
  8
MMIC_Label
  10
1714.805
  20
1968.39
  0
VERTEX
  8
MMIC_Label
  10
1715.248
  20
1967.891
  0
VERTEX
  8
MMIC_Label
  10
1715.547
  20
1967.414
  0
VERTEX
  8
MMIC_Label
  10
1716.026
  20
1963.831
  0
VERTEX
  8
MMIC_Label
  10
1715.034
  20
1961.515
  0
VERTEX
  8
MMIC_Label
  10
1714.861
  20
1961.256
  0
VERTEX
  8
MMIC_Label
  10
1713.626
  20
1960.601
  0
VERTEX
  8
MMIC_Label
  10
1711.777
  20
1960.685
  0
VERTEX
  8
MMIC_Label
  10
1710.543
  20
1960.932
  0
VERTEX
  8
MMIC_Label
  10
1709.737
  20
1961.469
  0
VERTEX
  8
MMIC_Label
  10
1708.953
  20
1963.116
  0
VERTEX
  8
MMIC_Label
  10
1708.953
  20
1975.03
  0
VERTEX
  8
MMIC_Label
  10
1709.008
  20
1975.467
  0
VERTEX
  8
MMIC_Label
  10
1709.922
  20
1976.534
  0
VERTEX
  8
MMIC_Label
  10
1710.271
  20
1976.767
  0
VERTEX
  8
MMIC_Label
  10
1711.546
  20
1977.107
  0
VERTEX
  8
MMIC_Label
  10
1712.133
  20
1977.18
  0
VERTEX
  8
MMIC_Label
  10
1714.041
  20
1976.862
  0
VERTEX
  8
MMIC_Label
  10
1714.548
  20
1976.291
  0
VERTEX
  8
MMIC_Label
  10
1714.921
  20
1975.694
  0
VERTEX
  8
MMIC_Label
  10
1715.183
  20
1974.647
  0
VERTEX
  8
MMIC_Label
  10
1717.342
  20
1975.188
  0
VERTEX
  8
MMIC_Label
  10
1716.889
  20
1977.002
  0
VERTEX
  8
MMIC_Label
  10
1716.86
  20
1977.048
  0
VERTEX
  8
MMIC_Label
  10
1714.907
  20
1979.244
  0
VERTEX
  8
MMIC_Label
  10
1712.173
  20
1979.7
  0
VERTEX
  8
MMIC_Label
  10
1711.16
  20
1979.573
  0
VERTEX
  8
MMIC_Label
  10
1709.157
  20
1979.039
  0
VERTEX
  8
MMIC_Label
  10
1706.396
  20
1975.82
  0
VERTEX
  8
MMIC_Label
  10
1706.313
  20
1975.15
  0
VERTEX
  8
MMIC_Label
  10
1706.313
  20
1962.664
  0
VERTEX
  8
MMIC_Label
  10
1707.97
  20
1959.183
  0
VERTEX
  8
MMIC_Label
  10
1709.343
  20
1958.268
  0
VERTEX
  8
MMIC_Label
  10
1711.109
  20
1957.915
  0
VERTEX
  8
MMIC_Label
  10
1714.459
  20
1957.763
  0
VERTEX
  8
MMIC_Label
  10
1715.972
  20
1958.562
  0
VERTEX
  8
MMIC_Label
  10
1717.092
  20
1960.245
  0
SEQEND
  0
POLYLINE
  8
MMIC_Label
  70
1
  66
1
  0
VERTEX
  8
MMIC_Label
  10
114.63
  20
291.05
  0
VERTEX
  8
MMIC_Label
  10
114.63
  20
312.83
  0
VERTEX
  8
MMIC_Label
  10
122.88
  20
312.83
  0
VERTEX
  8
MMIC_Label
  10
124.53
  20
311.84
  0
VERTEX
  8
MMIC_Label
  10
125.85
  20
310.85
  0
VERTEX
  8
MMIC_Label
  10
126.84
  20
309.53
  0
VERTEX
  8
MMIC_Label
  10
127.83
  20
307.88
  0
VERTEX
  8
MMIC_Label
  10
128.49
  20
305.9
  0
VERTEX
  8
MMIC_Label
  10
128.82
  20
303.92
  0
VERTEX
  8
MMIC_Label
  10
128.82
  20
299.96
  0
VERTEX
  8
MMIC_Label
  10
128.49
  20
297.98
  0
VERTEX
  8
MMIC_Label
  10
127.83
  20
296
  0
VERTEX
  8
MMIC_Label
  10
126.84
  20
294.35
  0
VERTEX
  8
MMIC_Label
  10
125.85
  20
293.03
  0
VERTEX
  8
MMIC_Label
  10
124.53
  20
292.04
  0
VERTEX
  8
MMIC_Label
  10
122.88
  20
291.05
  0
SEQEND
  0
POLYLINE
  8
MMIC_Label
  70
1
  66
1
  0
VERTEX
  8
MMIC_Label
  10
1688.2
  20
1983.7
  0
VERTEX
  8
MMIC_Label
  10
1688.2
  20
2048.1
  0
VERTEX
  8
MMIC_Label
  10
1683.2
  20
2048.1
  0
VERTEX
  8
MMIC_Label
  10
1683.2
  20
1983.7
  0
SEQEND
  0
POLYLINE
  8
MMIC_Label
  70
1
  66
1
  0
VERTEX
  8
MMIC_Label
  10
169.8
  20
2020.57
  0
VERTEX
  8
MMIC_Label
  10
172.11
  20
2020.9
  0
VERTEX
  8
MMIC_Label
  10
174.09
  20
2021.89
  0
VERTEX
  8
MMIC_Label
  10
175.74
  20
2023.21
  0
VERTEX
  8
MMIC_Label
  10
177.06
  20
2024.86
  0
VERTEX
  8
MMIC_Label
  10
178.05
  20
2026.84
  0
VERTEX
  8
MMIC_Label
  10
179.04
  20
2029.15
  0
VERTEX
  8
MMIC_Label
  10
179.04
  20
2037.4
  0
VERTEX
  8
MMIC_Label
  10
177.72
  20
2041.36
  0
VERTEX
  8
MMIC_Label
  10
176.4
  20
2043.34
  0
VERTEX
  8
MMIC_Label
  10
174.75
  20
2044.66
  0
VERTEX
  8
MMIC_Label
  10
172.77
  20
2045.65
  0
VERTEX
  8
MMIC_Label
  10
170.13
  20
2045.98
  0
VERTEX
  8
MMIC_Label
  10
167.82
  20
2045.32
  0
VERTEX
  8
MMIC_Label
  10
165.51
  20
2044.33
  0
VERTEX
  8
MMIC_Label
  10
163.86
  20
2042.68
  0
VERTEX
  8
MMIC_Label
  10
162.54
  20
2041.03
  0
VERTEX
  8
MMIC_Label
  10
161.55
  20
2039.05
  0
VERTEX
  8
MMIC_Label
  10
160.89
  20
2037.07
  0
VERTEX
  8
MMIC_Label
  10
158.58
  20
2031.13
  0
VERTEX
  8
MMIC_Label
  10
157.92
  20
2028.49
  0
VERTEX
  8
MMIC_Label
  10
155.94
  20
2026.51
  0
VERTEX
  8
MMIC_Label
  10
154.29
  20
2026.18
  0
VERTEX
  8
MMIC_Label
  10
152.64
  20
2026.51
  0
VERTEX
  8
MMIC_Label
  10
151.65
  20
2027.83
  0
VERTEX
  8
MMIC_Label
  10
150.99
  20
2030.47
  0
VERTEX
  8
MMIC_Label
  10
150.99
  20
2033.11
  0
VERTEX
  8
MMIC_Label
  10
151.65
  20
2036.41
  0
VERTEX
  8
MMIC_Label
  10
152.31
  20
2037.73
  0
VERTEX
  8
MMIC_Label
  10
153.3
  20
2039.05
  0
VERTEX
  8
MMIC_Label
  10
154.62
  20
2040.04
  0
VERTEX
  8
MMIC_Label
  10
156.6
  20
2040.37
  0
VERTEX
  8
MMIC_Label
  10
156.6
  20
2046.97
  0
VERTEX
  8
MMIC_Label
  10
153.96
  20
2046.64
  0
VERTEX
  8
MMIC_Label
  10
151.65
  20
2045.65
  0
VERTEX
  8
MMIC_Label
  10
149.67
  20
2044
  0
VERTEX
  8
MMIC_Label
  10
148.35
  20
2042.35
  0
VERTEX
  8
MMIC_Label
  10
147.03
  20
2040.04
  0
VERTEX
  8
MMIC_Label
  10
146.04
  20
2038.06
  0
VERTEX
  8
MMIC_Label
  10
146.04
  20
2028.82
  0
VERTEX
  8
MMIC_Label
  10
146.37
  20
2026.51
  0
VERTEX
  8
MMIC_Label
  10
147.36
  20
2024.53
  0
VERTEX
  8
MMIC_Label
  10
148.68
  20
2022.55
  0
VERTEX
  8
MMIC_Label
  10
150.33
  20
2020.9
  0
VERTEX
  8
MMIC_Label
  10
152.31
  20
2019.91
  0
VERTEX
  8
MMIC_Label
  10
154.95
  20
2019.58
  0
VERTEX
  8
MMIC_Label
  10
157.26
  20
2019.91
  0
VERTEX
  8
MMIC_Label
  10
159.24
  20
2020.57
  0
VERTEX
  8
MMIC_Label
  10
160.89
  20
2021.89
  0
VERTEX
  8
MMIC_Label
  10
162.21
  20
2023.54
  0
VERTEX
  8
MMIC_Label
  10
163.2
  20
2025.52
  0
VERTEX
  8
MMIC_Label
  10
164.19
  20
2027.17
  0
VERTEX
  8
MMIC_Label
  10
164.85
  20
2028.82
  0
VERTEX
  8
MMIC_Label
  10
166.83
  20
2035.42
  0
VERTEX
  8
MMIC_Label
  10
167.49
  20
2036.74
  0
VERTEX
  8
MMIC_Label
  10
168.15
  20
2037.73
  0
VERTEX
  8
MMIC_Label
  10
169.14
  20
2038.72
  0
VERTEX
  8
MMIC_Label
  10
170.79
  20
2039.38
  0
VERTEX
  8
MMIC_Label
  10
172.44
  20
2038.72
  0
VERTEX
  8
MMIC_Label
  10
173.43
  20
2037.4
  0
VERTEX
  8
MMIC_Label
  10
173.76
  20
2036.08
  0
VERTEX
  8
MMIC_Label
  10
174.09
  20
2034.43
  0
VERTEX
  8
MMIC_Label
  10
174.09
  20
2033.11
  0
VERTEX
  8
MMIC_Label
  10
173.76
  20
2031.79
  0
VERTEX
  8
MMIC_Label
  10
173.43
  20
2030.14
  0
VERTEX
  8
MMIC_Label
  10
172.77
  20
2028.49
  0
VERTEX
  8
MMIC_Label
  10
171.45
  20
2027.17
  0
VERTEX
  8
MMIC_Label
  10
169.8
  20
2026.51
  0
SEQEND
  0
POLYLINE
  8
MMIC_Label
  70
1
  66
1
  0
VERTEX
  8
MMIC_Label
  10
1789.03
  20
2433.275
  0
VERTEX
  8
MMIC_Label
  10
1788.7
  20
2435.255
  0
VERTEX
  8
MMIC_Label
  10
1788.7
  20
2439.875
  0
VERTEX
  8
MMIC_Label
  10
1789.03
  20
2441.855
  0
VERTEX
  8
MMIC_Label
  10
1789.69
  20
2443.835
  0
VERTEX
  8
MMIC_Label
  10
1790.35
  20
2445.485
  0
VERTEX
  8
MMIC_Label
  10
1791.34
  20
2447.135
  0
VERTEX
  8
MMIC_Label
  10
1792.33
  20
2448.125
  0
VERTEX
  8
MMIC_Label
  10
1793.65
  20
2448.785
  0
VERTEX
  8
MMIC_Label
  10
1795.3
  20
2449.115
  0
VERTEX
  8
MMIC_Label
  10
1796.62
  20
2448.785
  0
VERTEX
  8
MMIC_Label
  10
1797.94
  20
2448.125
  0
VERTEX
  8
MMIC_Label
  10
1799.26
  20
2447.135
  0
SEQEND
  0
POLYLINE
  8
MMIC_Label
  70
1
  66
1
  0
VERTEX
  8
MMIC_Label
  10
1648.1
  20
2118.64
  0
VERTEX
  8
MMIC_Label
  10
1638.2
  20
2118.64
  0
VERTEX
  8
MMIC_Label
  10
1648.1
  20
2131.84
  0
SEQEND
  0
POLYLINE
  8
MMIC_Label
  70
1
  66
1
  0
VERTEX
  8
MMIC_Label
  10
1533.2
  20
2106.1
  0
VERTEX
  8
MMIC_Label
  10
1543.1
  20
2139.1
  0
VERTEX
  8
MMIC_Label
  10
1550.69
  20
2139.1
  0
VERTEX
  8
MMIC_Label
  10
1560.59
  20
2106.1
  0
VERTEX
  8
MMIC_Label
  10
1553.66
  20
2106.1
  0
VERTEX
  8
MMIC_Label
  10
1552.01
  20
2112.7
  0
VERTEX
  8
MMIC_Label
  10
1542.11
  20
2112.7
  0
VERTEX
  8
MMIC_Label
  10
1540.46
  20
2106.1
  0
SEQEND
  0
POLYLINE
  8
MMIC_Label
  70
1
  66
1
  0
VERTEX
  8
MMIC_Label
  10
146.04
  20
1981.37
  0
VERTEX
  8
MMIC_Label
  10
179.04
  20
1981.37
  0
VERTEX
  8
MMIC_Label
  10
179.04
  20
1973.12
  0
VERTEX
  8
MMIC_Label
  10
156.93
  20
1967.51
  0
VERTEX
  8
MMIC_Label
  10
179.04
  20
1962.23
  0
VERTEX
  8
MMIC_Label
  10
179.04
  20
1953.98
  0
VERTEX
  8
MMIC_Label
  10
146.04
  20
1953.98
  0
VERTEX
  8
MMIC_Label
  10
146.04
  20
1959.26
  0
VERTEX
  8
MMIC_Label
  10
173.43
  20
1959.26
  0
VERTEX
  8
MMIC_Label
  10
151.65
  20
1965.53
  0
VERTEX
  8
MMIC_Label
  10
151.65
  20
1969.82
  0
VERTEX
  8
MMIC_Label
  10
173.43
  20
1976.42
  0
VERTEX
  8
MMIC_Label
  10
146.04
  20
1976.42
  0
SEQEND
  0
POLYLINE
  8
MMIC_Label
  70
1
  66
1
  0
VERTEX
  8
MMIC_Label
  10
1598.8
  20
2128.21
  0
VERTEX
  8
MMIC_Label
  10
1599.13
  20
2130.52
  0
VERTEX
  8
MMIC_Label
  10
1600.12
  20
2132.83
  0
VERTEX
  8
MMIC_Label
  10
1601.77
  20
2134.81
  0
VERTEX
  8
MMIC_Label
  10
1603.42
  20
2136.46
  0
VERTEX
  8
MMIC_Label
  10
1605.4
  20
2137.78
  0
VERTEX
  8
MMIC_Label
  10
1607.71
  20
2138.77
  0
VERTEX
  8
MMIC_Label
  10
1610.02
  20
2139.1
  0
VERTEX
  8
MMIC_Label
  10
1617.28
  20
2139.1
  0
VERTEX
  8
MMIC_Label
  10
1619.59
  20
2138.44
  0
VERTEX
  8
MMIC_Label
  10
1623.55
  20
2135.8
  0
VERTEX
  8
MMIC_Label
  10
1624.87
  20
2134.15
  0
VERTEX
  8
MMIC_Label
  10
1625.86
  20
2131.84
  0
VERTEX
  8
MMIC_Label
  10
1626.19
  20
2129.2
  0
VERTEX
  8
MMIC_Label
  10
1625.86
  20
2126.89
  0
VERTEX
  8
MMIC_Label
  10
1624.87
  20
2125.24
  0
VERTEX
  8
MMIC_Label
  10
1623.55
  20
2123.59
  0
VERTEX
  8
MMIC_Label
  10
1621.9
  20
2122.27
  0
VERTEX
  8
MMIC_Label
  10
1620.25
  20
2121.61
  0
VERTEX
  8
MMIC_Label
  10
1612.99
  20
2118.31
  0
VERTEX
  8
MMIC_Label
  10
1611.67
  20
2117.65
  0
VERTEX
  8
MMIC_Label
  10
1610.02
  20
2116.66
  0
VERTEX
  8
MMIC_Label
  10
1608.37
  20
2115.34
  0
VERTEX
  8
MMIC_Label
  10
1607.05
  20
2113.69
  0
VERTEX
  8
MMIC_Label
  10
1606.06
  20
2111.71
  0
VERTEX
  8
MMIC_Label
  10
1626.19
  20
2111.71
  0
VERTEX
  8
MMIC_Label
  10
1626.19
  20
2106.1
  0
VERTEX
  8
MMIC_Label
  10
1598.8
  20
2106.1
  0
VERTEX
  8
MMIC_Label
  10
1598.8
  20
2108.74
  0
VERTEX
  8
MMIC_Label
  10
1599.13
  20
2112.04
  0
VERTEX
  8
MMIC_Label
  10
1600.45
  20
2115.01
  0
VERTEX
  8
MMIC_Label
  10
1602.1
  20
2117.32
  0
VERTEX
  8
MMIC_Label
  10
1604.08
  20
2119.3
  0
VERTEX
  8
MMIC_Label
  10
1611.01
  20
2123.26
  0
VERTEX
  8
MMIC_Label
  10
1615.96
  20
2125.24
  0
VERTEX
  8
MMIC_Label
  10
1617.28
  20
2125.9
  0
VERTEX
  8
MMIC_Label
  10
1618.27
  20
2126.89
  0
VERTEX
  8
MMIC_Label
  10
1619.26
  20
2128.21
  0
VERTEX
  8
MMIC_Label
  10
1619.59
  20
2129.86
  0
VERTEX
  8
MMIC_Label
  10
1619.26
  20
2131.51
  0
VERTEX
  8
MMIC_Label
  10
1618.27
  20
2132.5
  0
VERTEX
  8
MMIC_Label
  10
1616.95
  20
2133.49
  0
VERTEX
  8
MMIC_Label
  10
1615.63
  20
2133.82
  0
VERTEX
  8
MMIC_Label
  10
1613.98
  20
2134.15
  0
VERTEX
  8
MMIC_Label
  10
1612.66
  20
2134.15
  0
VERTEX
  8
MMIC_Label
  10
1610.68
  20
2133.82
  0
VERTEX
  8
MMIC_Label
  10
1609.03
  20
2133.49
  0
VERTEX
  8
MMIC_Label
  10
1607.38
  20
2132.5
  0
VERTEX
  8
MMIC_Label
  10
1606.06
  20
2131.51
  0
VERTEX
  8
MMIC_Label
  10
1604.74
  20
2128.21
  0
SEQEND
  0
POLYLINE
  8
MMIC_Label
  70
1
  66
1
  0
VERTEX
  8
MMIC_Label
  10
1750.62
  20
57.3
  0
VERTEX
  8
MMIC_Label
  10
1753.26
  20
53.34
  0
VERTEX
  8
MMIC_Label
  10
1754.91
  20
52.02
  0
VERTEX
  8
MMIC_Label
  10
1756.56
  20
51.03
  0
VERTEX
  8
MMIC_Label
  10
1758.54
  20
50.04
  0
VERTEX
  8
MMIC_Label
  10
1765.47
  20
50.04
  0
VERTEX
  8
MMIC_Label
  10
1768.11
  20
50.37
  0
VERTEX
  8
MMIC_Label
  10
1772.07
  20
53.01
  0
VERTEX
  8
MMIC_Label
  10
1773.72
  20
54.66
  0
VERTEX
  8
MMIC_Label
  10
1775.04
  20
56.97
  0
VERTEX
  8
MMIC_Label
  10
1776.03
  20
58.95
  0
VERTEX
  8
MMIC_Label
  10
1776.69
  20
61.59
  0
VERTEX
  8
MMIC_Label
  10
1777.02
  20
63.9
  0
VERTEX
  8
MMIC_Label
  10
1777.35
  20
66.54
  0
VERTEX
  8
MMIC_Label
  10
1777.02
  20
69.18
  0
VERTEX
  8
MMIC_Label
  10
1776.69
  20
71.49
  0
VERTEX
  8
MMIC_Label
  10
1776.03
  20
74.13
  0
VERTEX
  8
MMIC_Label
  10
1775.04
  20
76.11
  0
VERTEX
  8
MMIC_Label
  10
1773.72
  20
78.42
  0
VERTEX
  8
MMIC_Label
  10
1772.07
  20
80.07
  0
VERTEX
  8
MMIC_Label
  10
1768.11
  20
82.71
  0
VERTEX
  8
MMIC_Label
  10
1765.47
  20
83.04
  0
VERTEX
  8
MMIC_Label
  10
1758.54
  20
83.04
  0
VERTEX
  8
MMIC_Label
  10
1756.56
  20
82.38
  0
VERTEX
  8
MMIC_Label
  10
1754.58
  20
81.06
  0
VERTEX
  8
MMIC_Label
  10
1752.93
  20
79.74
  0
VERTEX
  8
MMIC_Label
  10
1751.61
  20
78.42
  0
VERTEX
  8
MMIC_Label
  10
1750.62
  20
76.44
  0
VERTEX
  8
MMIC_Label
  10
1749.96
  20
74.46
  0
VERTEX
  8
MMIC_Label
  10
1749.63
  20
72.15
  0
VERTEX
  8
MMIC_Label
  10
1749.96
  20
69.51
  0
VERTEX
  8
MMIC_Label
  10
1750.62
  20
67.53
  0
VERTEX
  8
MMIC_Label
  10
1751.94
  20
65.88
  0
VERTEX
  8
MMIC_Label
  10
1753.59
  20
64.23
  0
VERTEX
  8
MMIC_Label
  10
1755.24
  20
63.24
  0
VERTEX
  8
MMIC_Label
  10
1757.55
  20
62.25
  0
VERTEX
  8
MMIC_Label
  10
1759.53
  20
61.92
  0
VERTEX
  8
MMIC_Label
  10
1761.84
  20
61.59
  0
VERTEX
  8
MMIC_Label
  10
1764.15
  20
61.92
  0
VERTEX
  8
MMIC_Label
  10
1766.46
  20
62.58
  0
VERTEX
  8
MMIC_Label
  10
1768.77
  20
63.9
  0
VERTEX
  8
MMIC_Label
  10
1770.42
  20
65.55
  0
VERTEX
  8
MMIC_Label
  10
1770.42
  20
63.57
  0
VERTEX
  8
MMIC_Label
  10
1770.09
  20
61.92
  0
VERTEX
  8
MMIC_Label
  10
1769.43
  20
59.94
  0
VERTEX
  8
MMIC_Label
  10
1768.77
  20
58.29
  0
VERTEX
  8
MMIC_Label
  10
1767.45
  20
56.64
  0
VERTEX
  8
MMIC_Label
  10
1766.13
  20
55.65
  0
VERTEX
  8
MMIC_Label
  10
1764.48
  20
54.66
  0
VERTEX
  8
MMIC_Label
  10
1762.17
  20
54.33
  0
VERTEX
  8
MMIC_Label
  10
1760.52
  20
54.66
  0
VERTEX
  8
MMIC_Label
  10
1757.88
  20
55.98
  0
VERTEX
  8
MMIC_Label
  10
1756.89
  20
57.3
  0
SEQEND
  0
POLYLINE
  8
MMIC_Label
  70
1
  66
1
  0
VERTEX
  8
MMIC_Label
  10
1795.3
  20
2426.015
  0
VERTEX
  8
MMIC_Label
  10
1793.65
  20
2426.345
  0
VERTEX
  8
MMIC_Label
  10
1792.33
  20
2427.005
  0
VERTEX
  8
MMIC_Label
  10
1791.34
  20
2427.995
  0
VERTEX
  8
MMIC_Label
  10
1801.24
  20
2441.855
  0
VERTEX
  8
MMIC_Label
  10
1801.57
  20
2439.875
  0
VERTEX
  8
MMIC_Label
  10
1801.9
  20
2437.565
  0
VERTEX
  8
MMIC_Label
  10
1801.57
  20
2435.255
  0
VERTEX
  8
MMIC_Label
  10
1800.91
  20
2431.295
  0
VERTEX
  8
MMIC_Label
  10
1800.25
  20
2429.645
  0
VERTEX
  8
MMIC_Label
  10
1799.26
  20
2427.995
  0
VERTEX
  8
MMIC_Label
  10
1797.94
  20
2427.005
  0
VERTEX
  8
MMIC_Label
  10
1796.62
  20
2426.345
  0
SEQEND
  0
POLYLINE
  8
MMIC_Label
  70
1
  66
1
  0
VERTEX
  8
MMIC_Label
  10
1576.23
  20
2068.1
  0
VERTEX
  8
MMIC_Label
  10
1574.25
  20
2068.43
  0
VERTEX
  8
MMIC_Label
  10
1572.27
  20
2069.75
  0
VERTEX
  8
MMIC_Label
  10
1571.61
  20
2070.41
  0
VERTEX
  8
MMIC_Label
  10
1569.63
  20
2068.1
  0
VERTEX
  8
MMIC_Label
  10
1566
  20
2071.4
  0
VERTEX
  8
MMIC_Label
  10
1568.31
  20
2074.37
  0
VERTEX
  8
MMIC_Label
  10
1567.98
  20
2075.03
  0
VERTEX
  8
MMIC_Label
  10
1567.32
  20
2077.01
  0
VERTEX
  8
MMIC_Label
  10
1566.66
  20
2079.65
  0
VERTEX
  8
MMIC_Label
  10
1566.33
  20
2081.96
  0
VERTEX
  8
MMIC_Label
  10
1566
  20
2084.6
  0
VERTEX
  8
MMIC_Label
  10
1566.33
  20
2087.24
  0
VERTEX
  8
MMIC_Label
  10
1566.66
  20
2089.55
  0
VERTEX
  8
MMIC_Label
  10
1567.32
  20
2092.19
  0
VERTEX
  8
MMIC_Label
  10
1567.98
  20
2094.17
  0
VERTEX
  8
MMIC_Label
  10
1569.3
  20
2096.48
  0
VERTEX
  8
MMIC_Label
  10
1570.62
  20
2098.13
  0
VERTEX
  8
MMIC_Label
  10
1572.27
  20
2099.45
  0
VERTEX
  8
MMIC_Label
  10
1574.25
  20
2100.77
  0
VERTEX
  8
MMIC_Label
  10
1576.23
  20
2101.1
  0
VERTEX
  8
MMIC_Label
  10
1581.18
  20
2101.1
  0
VERTEX
  8
MMIC_Label
  10
1583.16
  20
2100.77
  0
VERTEX
  8
MMIC_Label
  10
1585.14
  20
2099.45
  0
VERTEX
  8
MMIC_Label
  10
1586.13
  20
2098.46
  0
VERTEX
  8
MMIC_Label
  10
1588.11
  20
2101.1
  0
VERTEX
  8
MMIC_Label
  10
1591.41
  20
2098.13
  0
VERTEX
  8
MMIC_Label
  10
1589.1
  20
2094.83
  0
VERTEX
  8
MMIC_Label
  10
1590.42
  20
2092.19
  0
VERTEX
  8
MMIC_Label
  10
1590.75
  20
2089.55
  0
VERTEX
  8
MMIC_Label
  10
1591.41
  20
2087.24
  0
VERTEX
  8
MMIC_Label
  10
1591.41
  20
2081.96
  0
VERTEX
  8
MMIC_Label
  10
1590.75
  20
2079.65
  0
VERTEX
  8
MMIC_Label
  10
1590.42
  20
2077.01
  0
VERTEX
  8
MMIC_Label
  10
1589.43
  20
2075.03
  0
VERTEX
  8
MMIC_Label
  10
1588.11
  20
2072.72
  0
VERTEX
  8
MMIC_Label
  10
1586.79
  20
2071.07
  0
VERTEX
  8
MMIC_Label
  10
1585.14
  20
2069.75
  0
VERTEX
  8
MMIC_Label
  10
1583.16
  20
2068.43
  0
VERTEX
  8
MMIC_Label
  10
1581.18
  20
2068.1
  0
SEQEND
  0
POLYLINE
  8
MMIC_Label
  70
1
  66
1
  0
VERTEX
  8
MMIC_Label
  10
1598.8
  20
2128.21
  0
VERTEX
  8
MMIC_Label
  10
1599.13
  20
2130.52
  0
VERTEX
  8
MMIC_Label
  10
1600.12
  20
2132.83
  0
VERTEX
  8
MMIC_Label
  10
1601.77
  20
2134.81
  0
VERTEX
  8
MMIC_Label
  10
1603.42
  20
2136.46
  0
VERTEX
  8
MMIC_Label
  10
1605.4
  20
2137.78
  0
VERTEX
  8
MMIC_Label
  10
1607.71
  20
2138.77
  0
VERTEX
  8
MMIC_Label
  10
1610.02
  20
2139.1
  0
VERTEX
  8
MMIC_Label
  10
1617.28
  20
2139.1
  0
VERTEX
  8
MMIC_Label
  10
1619.59
  20
2138.44
  0
VERTEX
  8
MMIC_Label
  10
1623.55
  20
2135.8
  0
VERTEX
  8
MMIC_Label
  10
1624.87
  20
2134.15
  0
VERTEX
  8
MMIC_Label
  10
1625.86
  20
2131.84
  0
VERTEX
  8
MMIC_Label
  10
1626.19
  20
2129.2
  0
VERTEX
  8
MMIC_Label
  10
1625.86
  20
2126.89
  0
VERTEX
  8
MMIC_Label
  10
1624.87
  20
2125.24
  0
VERTEX
  8
MMIC_Label
  10
1623.55
  20
2123.59
  0
VERTEX
  8
MMIC_Label
  10
1621.9
  20
2122.27
  0
VERTEX
  8
MMIC_Label
  10
1620.25
  20
2121.61
  0
VERTEX
  8
MMIC_Label
  10
1612.99
  20
2118.31
  0
VERTEX
  8
MMIC_Label
  10
1611.67
  20
2117.65
  0
VERTEX
  8
MMIC_Label
  10
1610.02
  20
2116.66
  0
VERTEX
  8
MMIC_Label
  10
1608.37
  20
2115.34
  0
VERTEX
  8
MMIC_Label
  10
1607.05
  20
2113.69
  0
VERTEX
  8
MMIC_Label
  10
1606.06
  20
2111.71
  0
VERTEX
  8
MMIC_Label
  10
1626.19
  20
2111.71
  0
VERTEX
  8
MMIC_Label
  10
1626.19
  20
2106.1
  0
VERTEX
  8
MMIC_Label
  10
1598.8
  20
2106.1
  0
VERTEX
  8
MMIC_Label
  10
1598.8
  20
2108.74
  0
VERTEX
  8
MMIC_Label
  10
1599.13
  20
2112.04
  0
VERTEX
  8
MMIC_Label
  10
1600.45
  20
2115.01
  0
VERTEX
  8
MMIC_Label
  10
1602.1
  20
2117.32
  0
VERTEX
  8
MMIC_Label
  10
1604.08
  20
2119.3
  0
VERTEX
  8
MMIC_Label
  10
1611.01
  20
2123.26
  0
VERTEX
  8
MMIC_Label
  10
1615.96
  20
2125.24
  0
VERTEX
  8
MMIC_Label
  10
1617.28
  20
2125.9
  0
VERTEX
  8
MMIC_Label
  10
1618.27
  20
2126.89
  0
VERTEX
  8
MMIC_Label
  10
1619.26
  20
2128.21
  0
VERTEX
  8
MMIC_Label
  10
1619.59
  20
2129.86
  0
VERTEX
  8
MMIC_Label
  10
1619.26
  20
2131.51
  0
VERTEX
  8
MMIC_Label
  10
1618.27
  20
2132.5
  0
VERTEX
  8
MMIC_Label
  10
1616.95
  20
2133.49
  0
VERTEX
  8
MMIC_Label
  10
1615.63
  20
2133.82
  0
VERTEX
  8
MMIC_Label
  10
1613.98
  20
2134.15
  0
VERTEX
  8
MMIC_Label
  10
1612.66
  20
2134.15
  0
VERTEX
  8
MMIC_Label
  10
1610.68
  20
2133.82
  0
VERTEX
  8
MMIC_Label
  10
1609.03
  20
2133.49
  0
VERTEX
  8
MMIC_Label
  10
1607.38
  20
2132.5
  0
VERTEX
  8
MMIC_Label
  10
1606.06
  20
2131.51
  0
VERTEX
  8
MMIC_Label
  10
1604.74
  20
2128.21
  0
SEQEND
  0
POLYLINE
  8
MMIC_Label
  70
1
  66
1
  0
VERTEX
  8
MMIC_Label
  10
1643.2
  20
2048.1
  0
VERTEX
  8
MMIC_Label
  10
1668.2
  20
2048.1
  0
VERTEX
  8
MMIC_Label
  10
1668.2
  20
2043.1
  0
VERTEX
  8
MMIC_Label
  10
1643.2
  20
2043.1
  0
SEQEND
  0
POLYLINE
  8
MMIC_Label
  70
1
  66
1
  0
VERTEX
  8
MMIC_Label
  10
1792.66
  20
2421.065
  0
VERTEX
  8
MMIC_Label
  10
1790.68
  20
2421.395
  0
VERTEX
  8
MMIC_Label
  10
1788.7
  20
2422.715
  0
VERTEX
  8
MMIC_Label
  10
1788.04
  20
2423.375
  0
VERTEX
  8
MMIC_Label
  10
1786.06
  20
2421.065
  0
VERTEX
  8
MMIC_Label
  10
1782.43
  20
2424.365
  0
VERTEX
  8
MMIC_Label
  10
1784.74
  20
2427.335
  0
VERTEX
  8
MMIC_Label
  10
1784.41
  20
2427.995
  0
VERTEX
  8
MMIC_Label
  10
1783.75
  20
2429.975
  0
VERTEX
  8
MMIC_Label
  10
1783.09
  20
2432.615
  0
VERTEX
  8
MMIC_Label
  10
1782.76
  20
2434.925
  0
VERTEX
  8
MMIC_Label
  10
1782.43
  20
2437.565
  0
VERTEX
  8
MMIC_Label
  10
1782.76
  20
2440.205
  0
VERTEX
  8
MMIC_Label
  10
1783.09
  20
2442.515
  0
VERTEX
  8
MMIC_Label
  10
1783.75
  20
2445.155
  0
VERTEX
  8
MMIC_Label
  10
1784.41
  20
2447.135
  0
VERTEX
  8
MMIC_Label
  10
1785.73
  20
2449.445
  0
VERTEX
  8
MMIC_Label
  10
1787.05
  20
2451.095
  0
VERTEX
  8
MMIC_Label
  10
1788.7
  20
2452.415
  0
VERTEX
  8
MMIC_Label
  10
1790.68
  20
2453.735
  0
VERTEX
  8
MMIC_Label
  10
1792.66
  20
2454.065
  0
VERTEX
  8
MMIC_Label
  10
1797.61
  20
2454.065
  0
VERTEX
  8
MMIC_Label
  10
1799.59
  20
2453.735
  0
VERTEX
  8
MMIC_Label
  10
1801.57
  20
2452.415
  0
VERTEX
  8
MMIC_Label
  10
1802.56
  20
2451.425
  0
VERTEX
  8
MMIC_Label
  10
1804.54
  20
2454.065
  0
VERTEX
  8
MMIC_Label
  10
1807.84
  20
2451.095
  0
VERTEX
  8
MMIC_Label
  10
1805.53
  20
2447.795
  0
VERTEX
  8
MMIC_Label
  10
1806.85
  20
2445.155
  0
VERTEX
  8
MMIC_Label
  10
1807.18
  20
2442.515
  0
VERTEX
  8
MMIC_Label
  10
1807.84
  20
2440.205
  0
VERTEX
  8
MMIC_Label
  10
1807.84
  20
2434.925
  0
VERTEX
  8
MMIC_Label
  10
1807.18
  20
2432.615
  0
VERTEX
  8
MMIC_Label
  10
1806.85
  20
2429.975
  0
VERTEX
  8
MMIC_Label
  10
1805.86
  20
2427.995
  0
VERTEX
  8
MMIC_Label
  10
1804.54
  20
2425.685
  0
VERTEX
  8
MMIC_Label
  10
1803.22
  20
2424.035
  0
VERTEX
  8
MMIC_Label
  10
1801.57
  20
2422.715
  0
VERTEX
  8
MMIC_Label
  10
1799.59
  20
2421.395
  0
VERTEX
  8
MMIC_Label
  10
1797.61
  20
2421.065
  0
SEQEND
  0
POLYLINE
  8
MMIC_Label
  70
1
  66
1
  0
VERTEX
  8
MMIC_Label
  10
69.82
  20
307.88
  0
VERTEX
  8
MMIC_Label
  10
69.16
  20
310.19
  0
VERTEX
  8
MMIC_Label
  10
68.17
  20
312.5
  0
VERTEX
  8
MMIC_Label
  10
66.85
  20
314.15
  0
VERTEX
  8
MMIC_Label
  10
65.2
  20
315.8
  0
VERTEX
  8
MMIC_Label
  10
63.55
  20
317.12
  0
VERTEX
  8
MMIC_Label
  10
61.24
  20
318.11
  0
VERTEX
  8
MMIC_Label
  10
59.26
  20
318.44
  0
VERTEX
  8
MMIC_Label
  10
53.98
  20
318.44
  0
VERTEX
  8
MMIC_Label
  10
51.67
  20
318.11
  0
VERTEX
  8
MMIC_Label
  10
49.36
  20
316.79
  0
VERTEX
  8
MMIC_Label
  10
47.71
  20
315.47
  0
VERTEX
  8
MMIC_Label
  10
46.06
  20
313.82
  0
VERTEX
  8
MMIC_Label
  10
44.74
  20
311.51
  0
VERTEX
  8
MMIC_Label
  10
43.75
  20
309.53
  0
VERTEX
  8
MMIC_Label
  10
43.09
  20
306.89
  0
VERTEX
  8
MMIC_Label
  10
42.76
  20
304.58
  0
VERTEX
  8
MMIC_Label
  10
42.43
  20
301.94
  0
VERTEX
  8
MMIC_Label
  10
42.76
  20
299.3
  0
VERTEX
  8
MMIC_Label
  10
43.09
  20
296.99
  0
VERTEX
  8
MMIC_Label
  10
43.75
  20
294.35
  0
VERTEX
  8
MMIC_Label
  10
44.74
  20
292.37
  0
VERTEX
  8
MMIC_Label
  10
46.06
  20
290.06
  0
VERTEX
  8
MMIC_Label
  10
47.71
  20
288.41
  0
VERTEX
  8
MMIC_Label
  10
49.36
  20
287.09
  0
VERTEX
  8
MMIC_Label
  10
51.67
  20
285.77
  0
VERTEX
  8
MMIC_Label
  10
53.98
  20
285.44
  0
VERTEX
  8
MMIC_Label
  10
58.6
  20
285.44
  0
VERTEX
  8
MMIC_Label
  10
60.58
  20
285.77
  0
VERTEX
  8
MMIC_Label
  10
63.88
  20
287.75
  0
VERTEX
  8
MMIC_Label
  10
64.87
  20
289.4
  0
VERTEX
  8
MMIC_Label
  10
66.19
  20
285.44
  0
VERTEX
  8
MMIC_Label
  10
69.82
  20
285.44
  0
VERTEX
  8
MMIC_Label
  10
69.82
  20
301.94
  0
VERTEX
  8
MMIC_Label
  10
57.28
  20
301.94
  0
VERTEX
  8
MMIC_Label
  10
57.28
  20
296.99
  0
VERTEX
  8
MMIC_Label
  10
63.22
  20
296.99
  0
VERTEX
  8
MMIC_Label
  10
62.89
  20
295.34
  0
VERTEX
  8
MMIC_Label
  10
62.23
  20
293.69
  0
VERTEX
  8
MMIC_Label
  10
61.24
  20
292.37
  0
VERTEX
  8
MMIC_Label
  10
59.92
  20
291.38
  0
VERTEX
  8
MMIC_Label
  10
58.6
  20
290.72
  0
VERTEX
  8
MMIC_Label
  10
56.62
  20
290.39
  0
VERTEX
  8
MMIC_Label
  10
54.97
  20
290.72
  0
VERTEX
  8
MMIC_Label
  10
53.32
  20
291.38
  0
VERTEX
  8
MMIC_Label
  10
52
  20
292.37
  0
VERTEX
  8
MMIC_Label
  10
50.68
  20
294.02
  0
VERTEX
  8
MMIC_Label
  10
50.02
  20
295.67
  0
VERTEX
  8
MMIC_Label
  10
49.36
  20
297.65
  0
VERTEX
  8
MMIC_Label
  10
49.03
  20
299.63
  0
VERTEX
  8
MMIC_Label
  10
49.03
  20
304.25
  0
VERTEX
  8
MMIC_Label
  10
49.36
  20
306.23
  0
VERTEX
  8
MMIC_Label
  10
50.02
  20
308.21
  0
VERTEX
  8
MMIC_Label
  10
50.68
  20
309.86
  0
VERTEX
  8
MMIC_Label
  10
52
  20
311.51
  0
VERTEX
  8
MMIC_Label
  10
53.32
  20
312.5
  0
VERTEX
  8
MMIC_Label
  10
54.97
  20
313.16
  0
VERTEX
  8
MMIC_Label
  10
56.62
  20
313.49
  0
VERTEX
  8
MMIC_Label
  10
58.6
  20
313.16
  0
VERTEX
  8
MMIC_Label
  10
60.25
  20
312.17
  0
VERTEX
  8
MMIC_Label
  10
61.57
  20
311.18
  0
VERTEX
  8
MMIC_Label
  10
62.56
  20
309.53
  0
VERTEX
  8
MMIC_Label
  10
63.22
  20
307.88
  0
SEQEND
  0
POLYLINE
  8
MMIC_Label
  70
1
  66
1
  0
VERTEX
  8
MMIC_Label
  10
1572.6
  20
2080.31
  0
VERTEX
  8
MMIC_Label
  10
1572.27
  20
2082.29
  0
VERTEX
  8
MMIC_Label
  10
1572.27
  20
2086.91
  0
VERTEX
  8
MMIC_Label
  10
1572.6
  20
2088.89
  0
VERTEX
  8
MMIC_Label
  10
1573.26
  20
2090.87
  0
VERTEX
  8
MMIC_Label
  10
1573.92
  20
2092.52
  0
VERTEX
  8
MMIC_Label
  10
1574.91
  20
2094.17
  0
VERTEX
  8
MMIC_Label
  10
1575.9
  20
2095.16
  0
VERTEX
  8
MMIC_Label
  10
1577.22
  20
2095.82
  0
VERTEX
  8
MMIC_Label
  10
1578.87
  20
2096.15
  0
VERTEX
  8
MMIC_Label
  10
1580.19
  20
2095.82
  0
VERTEX
  8
MMIC_Label
  10
1581.51
  20
2095.16
  0
VERTEX
  8
MMIC_Label
  10
1582.83
  20
2094.17
  0
SEQEND
  0
POLYLINE
  8
MMIC_Label
  70
1
  66
1
  0
VERTEX
  8
MMIC_Label
  10
1750.62
  20
57.3
  0
VERTEX
  8
MMIC_Label
  10
1753.26
  20
53.34
  0
VERTEX
  8
MMIC_Label
  10
1754.91
  20
52.02
  0
VERTEX
  8
MMIC_Label
  10
1756.56
  20
51.03
  0
VERTEX
  8
MMIC_Label
  10
1758.54
  20
50.04
  0
VERTEX
  8
MMIC_Label
  10
1765.47
  20
50.04
  0
VERTEX
  8
MMIC_Label
  10
1768.11
  20
50.37
  0
VERTEX
  8
MMIC_Label
  10
1772.07
  20
53.01
  0
VERTEX
  8
MMIC_Label
  10
1773.72
  20
54.66
  0
VERTEX
  8
MMIC_Label
  10
1775.04
  20
56.97
  0
VERTEX
  8
MMIC_Label
  10
1776.03
  20
58.95
  0
VERTEX
  8
MMIC_Label
  10
1776.69
  20
61.59
  0
VERTEX
  8
MMIC_Label
  10
1777.02
  20
63.9
  0
VERTEX
  8
MMIC_Label
  10
1777.35
  20
66.54
  0
VERTEX
  8
MMIC_Label
  10
1777.02
  20
69.18
  0
VERTEX
  8
MMIC_Label
  10
1776.69
  20
71.49
  0
VERTEX
  8
MMIC_Label
  10
1776.03
  20
74.13
  0
VERTEX
  8
MMIC_Label
  10
1775.04
  20
76.11
  0
VERTEX
  8
MMIC_Label
  10
1773.72
  20
78.42
  0
VERTEX
  8
MMIC_Label
  10
1772.07
  20
80.07
  0
VERTEX
  8
MMIC_Label
  10
1768.11
  20
82.71
  0
VERTEX
  8
MMIC_Label
  10
1765.47
  20
83.04
  0
VERTEX
  8
MMIC_Label
  10
1758.54
  20
83.04
  0
VERTEX
  8
MMIC_Label
  10
1756.56
  20
82.38
  0
VERTEX
  8
MMIC_Label
  10
1754.58
  20
81.06
  0
VERTEX
  8
MMIC_Label
  10
1752.93
  20
79.74
  0
VERTEX
  8
MMIC_Label
  10
1751.61
  20
78.42
  0
VERTEX
  8
MMIC_Label
  10
1750.62
  20
76.44
  0
VERTEX
  8
MMIC_Label
  10
1749.96
  20
74.46
  0
VERTEX
  8
MMIC_Label
  10
1749.63
  20
72.15
  0
VERTEX
  8
MMIC_Label
  10
1749.96
  20
69.51
  0
VERTEX
  8
MMIC_Label
  10
1750.62
  20
67.53
  0
VERTEX
  8
MMIC_Label
  10
1751.94
  20
65.88
  0
VERTEX
  8
MMIC_Label
  10
1753.59
  20
64.23
  0
VERTEX
  8
MMIC_Label
  10
1755.24
  20
63.24
  0
VERTEX
  8
MMIC_Label
  10
1757.55
  20
62.25
  0
VERTEX
  8
MMIC_Label
  10
1759.53
  20
61.92
  0
VERTEX
  8
MMIC_Label
  10
1761.84
  20
61.59
  0
VERTEX
  8
MMIC_Label
  10
1764.15
  20
61.92
  0
VERTEX
  8
MMIC_Label
  10
1766.46
  20
62.58
  0
VERTEX
  8
MMIC_Label
  10
1768.77
  20
63.9
  0
VERTEX
  8
MMIC_Label
  10
1770.42
  20
65.55
  0
VERTEX
  8
MMIC_Label
  10
1770.42
  20
63.57
  0
VERTEX
  8
MMIC_Label
  10
1770.09
  20
61.92
  0
VERTEX
  8
MMIC_Label
  10
1769.43
  20
59.94
  0
VERTEX
  8
MMIC_Label
  10
1768.77
  20
58.29
  0
VERTEX
  8
MMIC_Label
  10
1767.45
  20
56.64
  0
VERTEX
  8
MMIC_Label
  10
1766.13
  20
55.65
  0
VERTEX
  8
MMIC_Label
  10
1764.48
  20
54.66
  0
VERTEX
  8
MMIC_Label
  10
1762.17
  20
54.33
  0
VERTEX
  8
MMIC_Label
  10
1760.52
  20
54.66
  0
VERTEX
  8
MMIC_Label
  10
1757.88
  20
55.98
  0
VERTEX
  8
MMIC_Label
  10
1756.89
  20
57.3
  0
SEQEND
  0
POLYLINE
  8
MMIC_Label
  70
1
  66
1
  0
VERTEX
  8
MMIC_Label
  10
114.63
  20
291.05
  0
VERTEX
  8
MMIC_Label
  10
114.63
  20
312.83
  0
VERTEX
  8
MMIC_Label
  10
122.88
  20
312.83
  0
VERTEX
  8
MMIC_Label
  10
124.53
  20
311.84
  0
VERTEX
  8
MMIC_Label
  10
125.85
  20
310.85
  0
VERTEX
  8
MMIC_Label
  10
126.84
  20
309.53
  0
VERTEX
  8
MMIC_Label
  10
127.83
  20
307.88
  0
VERTEX
  8
MMIC_Label
  10
128.49
  20
305.9
  0
VERTEX
  8
MMIC_Label
  10
128.82
  20
303.92
  0
VERTEX
  8
MMIC_Label
  10
128.82
  20
299.96
  0
VERTEX
  8
MMIC_Label
  10
128.49
  20
297.98
  0
VERTEX
  8
MMIC_Label
  10
127.83
  20
296
  0
VERTEX
  8
MMIC_Label
  10
126.84
  20
294.35
  0
VERTEX
  8
MMIC_Label
  10
125.85
  20
293.03
  0
VERTEX
  8
MMIC_Label
  10
124.53
  20
292.04
  0
VERTEX
  8
MMIC_Label
  10
122.88
  20
291.05
  0
SEQEND
  0
POLYLINE
  8
MMIC_Label
  70
1
  66
1
  0
VERTEX
  8
MMIC_Label
  10
1648.1
  20
2118.64
  0
VERTEX
  8
MMIC_Label
  10
1638.2
  20
2118.64
  0
VERTEX
  8
MMIC_Label
  10
1648.1
  20
2131.84
  0
SEQEND
  0
POLYLINE
  8
MMIC_Label
  70
1
  66
1
  0
VERTEX
  8
MMIC_Label
  10
1604.74
  20
2068.1
  0
VERTEX
  8
MMIC_Label
  10
1605.07
  20
2072.72
  0
VERTEX
  8
MMIC_Label
  10
1606.06
  20
2076.68
  0
VERTEX
  8
MMIC_Label
  10
1607.71
  20
2080.64
  0
VERTEX
  8
MMIC_Label
  10
1609.69
  20
2084.27
  0
VERTEX
  8
MMIC_Label
  10
1612
  20
2087.57
  0
VERTEX
  8
MMIC_Label
  10
1614.31
  20
2090.54
  0
VERTEX
  8
MMIC_Label
  10
1616.95
  20
2093.18
  0
VERTEX
  8
MMIC_Label
  10
1619.59
  20
2095.49
  0
VERTEX
  8
MMIC_Label
  10
1598.8
  20
2095.49
  0
VERTEX
  8
MMIC_Label
  10
1598.8
  20
2101.1
  0
VERTEX
  8
MMIC_Label
  10
1626.19
  20
2101.1
  0
VERTEX
  8
MMIC_Label
  10
1626.19
  20
2095.49
  0
VERTEX
  8
MMIC_Label
  10
1623.22
  20
2093.18
  0
VERTEX
  8
MMIC_Label
  10
1620.25
  20
2090.21
  0
VERTEX
  8
MMIC_Label
  10
1615.63
  20
2083.61
  0
VERTEX
  8
MMIC_Label
  10
1613.98
  20
2079.98
  0
VERTEX
  8
MMIC_Label
  10
1612.66
  20
2076.35
  0
VERTEX
  8
MMIC_Label
  10
1612
  20
2072.06
  0
VERTEX
  8
MMIC_Label
  10
1611.34
  20
2068.1
  0
SEQEND
  0
POLYLINE
  8
MMIC_Label
  70
1
  66
1
  0
VERTEX
  8
MMIC_Label
  10
1703.225
  20
1978.29
  0
VERTEX
  8
MMIC_Label
  10
1700.809
  20
1978.29
  0
VERTEX
  8
MMIC_Label
  10
1699.483
  20
1974.851
  0
VERTEX
  8
MMIC_Label
  10
1698.944
  20
1974.232
  0
VERTEX
  8
MMIC_Label
  10
1697.312
  20
1973.246
  0
VERTEX
  8
MMIC_Label
  10
1697.312
  20
1970.722
  0
VERTEX
  8
MMIC_Label
  10
1697.336
  20
1970.706
  0
VERTEX
  8
MMIC_Label
  10
1697.361
  20
1970.691
  0
VERTEX
  8
MMIC_Label
  10
1698.352
  20
1971.161
  0
VERTEX
  8
MMIC_Label
  10
1699.477
  20
1972.009
  0
VERTEX
  8
MMIC_Label
  10
1699.481
  20
1972.012
  0
VERTEX
  8
MMIC_Label
  10
1699.763
  20
1972.357
  0
VERTEX
  8
MMIC_Label
  10
1699.763
  20
1972.32
  0
VERTEX
  8
MMIC_Label
  10
1700.691
  20
1972.32
  0
VERTEX
  8
MMIC_Label
  10
1700.691
  20
1958.09
  0
VERTEX
  8
MMIC_Label
  10
1703.225
  20
1958.09
  0
SEQEND
  0
POLYLINE
  8
MMIC_Label
  70
1
  66
1
  0
VERTEX
  8
MMIC_Label
  10
1543.1
  20
2117.65
  0
VERTEX
  8
MMIC_Label
  10
1547.06
  20
2131.84
  0
VERTEX
  8
MMIC_Label
  10
1550.69
  20
2117.65
  0
SEQEND
  0
POLYLINE
  8
MMIC_Label
  70
1
  66
1
  0
VERTEX
  8
MMIC_Label
  10
1653.05
  20
2078.66
  0
VERTEX
  8
MMIC_Label
  10
1652.72
  20
2076.68
  0
VERTEX
  8
MMIC_Label
  10
1652.06
  20
2075.36
  0
VERTEX
  8
MMIC_Label
  10
1651.07
  20
2074.04
  0
VERTEX
  8
MMIC_Label
  10
1650.08
  20
2073.38
  0
VERTEX
  8
MMIC_Label
  10
1648.43
  20
2072.72
  0
VERTEX
  8
MMIC_Label
  10
1647.11
  20
2072.39
  0
VERTEX
  8
MMIC_Label
  10
1645.46
  20
2072.39
  0
VERTEX
  8
MMIC_Label
  10
1643.81
  20
2072.72
  0
VERTEX
  8
MMIC_Label
  10
1641.17
  20
2074.04
  0
VERTEX
  8
MMIC_Label
  10
1640.18
  20
2075.36
  0
VERTEX
  8
MMIC_Label
  10
1639.52
  20
2076.68
  0
VERTEX
  8
MMIC_Label
  10
1639.19
  20
2078.66
  0
VERTEX
  8
MMIC_Label
  10
1639.52
  20
2080.31
  0
VERTEX
  8
MMIC_Label
  10
1640.18
  20
2081.63
  0
VERTEX
  8
MMIC_Label
  10
1641.17
  20
2082.95
  0
VERTEX
  8
MMIC_Label
  10
1643.81
  20
2084.27
  0
VERTEX
  8
MMIC_Label
  10
1645.46
  20
2084.6
  0
VERTEX
  8
MMIC_Label
  10
1647.11
  20
2084.6
  0
VERTEX
  8
MMIC_Label
  10
1648.43
  20
2084.27
  0
VERTEX
  8
MMIC_Label
  10
1650.08
  20
2083.61
  0
VERTEX
  8
MMIC_Label
  10
1651.07
  20
2082.95
  0
VERTEX
  8
MMIC_Label
  10
1652.06
  20
2081.63
  0
VERTEX
  8
MMIC_Label
  10
1652.72
  20
2080.31
  0
SEQEND
  0
POLYLINE
  8
MMIC_Label
  70
1
  66
1
  0
VERTEX
  8
MMIC_Label
  10
1795.3
  20
2426.015
  0
VERTEX
  8
MMIC_Label
  10
1793.65
  20
2426.345
  0
VERTEX
  8
MMIC_Label
  10
1792.33
  20
2427.005
  0
VERTEX
  8
MMIC_Label
  10
1791.34
  20
2427.995
  0
VERTEX
  8
MMIC_Label
  10
1801.24
  20
2441.855
  0
VERTEX
  8
MMIC_Label
  10
1801.57
  20
2439.875
  0
VERTEX
  8
MMIC_Label
  10
1801.9
  20
2437.565
  0
VERTEX
  8
MMIC_Label
  10
1801.57
  20
2435.255
  0
VERTEX
  8
MMIC_Label
  10
1800.91
  20
2431.295
  0
VERTEX
  8
MMIC_Label
  10
1800.25
  20
2429.645
  0
VERTEX
  8
MMIC_Label
  10
1799.26
  20
2427.995
  0
VERTEX
  8
MMIC_Label
  10
1797.94
  20
2427.005
  0
VERTEX
  8
MMIC_Label
  10
1796.62
  20
2426.345
  0
SEQEND
  0
POLYLINE
  8
MMIC_Label
  70
1
  66
1
  0
VERTEX
  8
MMIC_Label
  10
1718.2
  20
2019.2
  0
VERTEX
  8
MMIC_Label
  10
1533.2
  20
2019.2
  0
VERTEX
  8
MMIC_Label
  10
1533.2
  20
2014.2
  0
VERTEX
  8
MMIC_Label
  10
1718.2
  20
2014.2
  0
SEQEND
  0
POLYLINE
  8
MMIC_Label
  70
1
  66
1
  0
VERTEX
  8
MMIC_Label
  10
1576.23
  20
2068.1
  0
VERTEX
  8
MMIC_Label
  10
1574.25
  20
2068.43
  0
VERTEX
  8
MMIC_Label
  10
1572.27
  20
2069.75
  0
VERTEX
  8
MMIC_Label
  10
1571.61
  20
2070.41
  0
VERTEX
  8
MMIC_Label
  10
1569.63
  20
2068.1
  0
VERTEX
  8
MMIC_Label
  10
1566
  20
2071.4
  0
VERTEX
  8
MMIC_Label
  10
1568.31
  20
2074.37
  0
VERTEX
  8
MMIC_Label
  10
1567.98
  20
2075.03
  0
VERTEX
  8
MMIC_Label
  10
1567.32
  20
2077.01
  0
VERTEX
  8
MMIC_Label
  10
1566.66
  20
2079.65
  0
VERTEX
  8
MMIC_Label
  10
1566.33
  20
2081.96
  0
VERTEX
  8
MMIC_Label
  10
1566
  20
2084.6
  0
VERTEX
  8
MMIC_Label
  10
1566.33
  20
2087.24
  0
VERTEX
  8
MMIC_Label
  10
1566.66
  20
2089.55
  0
VERTEX
  8
MMIC_Label
  10
1567.32
  20
2092.19
  0
VERTEX
  8
MMIC_Label
  10
1567.98
  20
2094.17
  0
VERTEX
  8
MMIC_Label
  10
1569.3
  20
2096.48
  0
VERTEX
  8
MMIC_Label
  10
1570.62
  20
2098.13
  0
VERTEX
  8
MMIC_Label
  10
1572.27
  20
2099.45
  0
VERTEX
  8
MMIC_Label
  10
1574.25
  20
2100.77
  0
VERTEX
  8
MMIC_Label
  10
1576.23
  20
2101.1
  0
VERTEX
  8
MMIC_Label
  10
1581.18
  20
2101.1
  0
VERTEX
  8
MMIC_Label
  10
1583.16
  20
2100.77
  0
VERTEX
  8
MMIC_Label
  10
1585.14
  20
2099.45
  0
VERTEX
  8
MMIC_Label
  10
1586.13
  20
2098.46
  0
VERTEX
  8
MMIC_Label
  10
1588.11
  20
2101.1
  0
VERTEX
  8
MMIC_Label
  10
1591.41
  20
2098.13
  0
VERTEX
  8
MMIC_Label
  10
1589.1
  20
2094.83
  0
VERTEX
  8
MMIC_Label
  10
1590.42
  20
2092.19
  0
VERTEX
  8
MMIC_Label
  10
1590.75
  20
2089.55
  0
VERTEX
  8
MMIC_Label
  10
1591.41
  20
2087.24
  0
VERTEX
  8
MMIC_Label
  10
1591.41
  20
2081.96
  0
VERTEX
  8
MMIC_Label
  10
1590.75
  20
2079.65
  0
VERTEX
  8
MMIC_Label
  10
1590.42
  20
2077.01
  0
VERTEX
  8
MMIC_Label
  10
1589.43
  20
2075.03
  0
VERTEX
  8
MMIC_Label
  10
1588.11
  20
2072.72
  0
VERTEX
  8
MMIC_Label
  10
1586.79
  20
2071.07
  0
VERTEX
  8
MMIC_Label
  10
1585.14
  20
2069.75
  0
VERTEX
  8
MMIC_Label
  10
1583.16
  20
2068.43
  0
VERTEX
  8
MMIC_Label
  10
1581.18
  20
2068.1
  0
SEQEND
  0
POLYLINE
  8
MMIC_Label
  70
1
  66
1
  0
VERTEX
  8
MMIC_Label
  10
1755.57
  20
72.48
  0
VERTEX
  8
MMIC_Label
  10
1755.9
  20
74.13
  0
VERTEX
  8
MMIC_Label
  10
1756.56
  20
75.78
  0
VERTEX
  8
MMIC_Label
  10
1757.55
  20
76.77
  0
VERTEX
  8
MMIC_Label
  10
1758.87
  20
77.76
  0
VERTEX
  8
MMIC_Label
  10
1760.19
  20
78.09
  0
VERTEX
  8
MMIC_Label
  10
1761.84
  20
78.42
  0
VERTEX
  8
MMIC_Label
  10
1763.49
  20
78.42
  0
VERTEX
  8
MMIC_Label
  10
1764.81
  20
78.09
  0
VERTEX
  8
MMIC_Label
  10
1766.46
  20
77.76
  0
VERTEX
  8
MMIC_Label
  10
1768.44
  20
75.78
  0
VERTEX
  8
MMIC_Label
  10
1769.1
  20
74.13
  0
VERTEX
  8
MMIC_Label
  10
1769.43
  20
72.48
  0
VERTEX
  8
MMIC_Label
  10
1769.1
  20
70.83
  0
VERTEX
  8
MMIC_Label
  10
1768.44
  20
69.51
  0
VERTEX
  8
MMIC_Label
  10
1767.45
  20
68.19
  0
VERTEX
  8
MMIC_Label
  10
1766.46
  20
67.2
  0
VERTEX
  8
MMIC_Label
  10
1764.81
  20
66.87
  0
VERTEX
  8
MMIC_Label
  10
1763.49
  20
66.54
  0
VERTEX
  8
MMIC_Label
  10
1761.84
  20
66.54
  0
VERTEX
  8
MMIC_Label
  10
1760.19
  20
66.87
  0
VERTEX
  8
MMIC_Label
  10
1758.87
  20
67.2
  0
VERTEX
  8
MMIC_Label
  10
1757.55
  20
68.19
  0
VERTEX
  8
MMIC_Label
  10
1756.56
  20
69.51
  0
VERTEX
  8
MMIC_Label
  10
1755.9
  20
70.83
  0
SEQEND
  0
POLYLINE
  8
MMIC_Label
  70
1
  66
1
  0
VERTEX
  8
MMIC_Label
  10
1576.23
  20
2068.1
  0
VERTEX
  8
MMIC_Label
  10
1574.25
  20
2068.43
  0
VERTEX
  8
MMIC_Label
  10
1572.27
  20
2069.75
  0
VERTEX
  8
MMIC_Label
  10
1571.61
  20
2070.41
  0
VERTEX
  8
MMIC_Label
  10
1569.63
  20
2068.1
  0
VERTEX
  8
MMIC_Label
  10
1566
  20
2071.4
  0
VERTEX
  8
MMIC_Label
  10
1568.31
  20
2074.37
  0
VERTEX
  8
MMIC_Label
  10
1567.98
  20
2075.03
  0
VERTEX
  8
MMIC_Label
  10
1567.32
  20
2077.01
  0
VERTEX
  8
MMIC_Label
  10
1566.66
  20
2079.65
  0
VERTEX
  8
MMIC_Label
  10
1566.33
  20
2081.96
  0
VERTEX
  8
MMIC_Label
  10
1566
  20
2084.6
  0
VERTEX
  8
MMIC_Label
  10
1566.33
  20
2087.24
  0
VERTEX
  8
MMIC_Label
  10
1566.66
  20
2089.55
  0
VERTEX
  8
MMIC_Label
  10
1567.32
  20
2092.19
  0
VERTEX
  8
MMIC_Label
  10
1567.98
  20
2094.17
  0
VERTEX
  8
MMIC_Label
  10
1569.3
  20
2096.48
  0
VERTEX
  8
MMIC_Label
  10
1570.62
  20
2098.13
  0
VERTEX
  8
MMIC_Label
  10
1572.27
  20
2099.45
  0
VERTEX
  8
MMIC_Label
  10
1574.25
  20
2100.77
  0
VERTEX
  8
MMIC_Label
  10
1576.23
  20
2101.1
  0
VERTEX
  8
MMIC_Label
  10
1581.18
  20
2101.1
  0
VERTEX
  8
MMIC_Label
  10
1583.16
  20
2100.77
  0
VERTEX
  8
MMIC_Label
  10
1585.14
  20
2099.45
  0
VERTEX
  8
MMIC_Label
  10
1586.13
  20
2098.46
  0
VERTEX
  8
MMIC_Label
  10
1588.11
  20
2101.1
  0
VERTEX
  8
MMIC_Label
  10
1591.41
  20
2098.13
  0
VERTEX
  8
MMIC_Label
  10
1589.1
  20
2094.83
  0
VERTEX
  8
MMIC_Label
  10
1590.42
  20
2092.19
  0
VERTEX
  8
MMIC_Label
  10
1590.75
  20
2089.55
  0
VERTEX
  8
MMIC_Label
  10
1591.41
  20
2087.24
  0
VERTEX
  8
MMIC_Label
  10
1591.41
  20
2081.96
  0
VERTEX
  8
MMIC_Label
  10
1590.75
  20
2079.65
  0
VERTEX
  8
MMIC_Label
  10
1590.42
  20
2077.01
  0
VERTEX
  8
MMIC_Label
  10
1589.43
  20
2075.03
  0
VERTEX
  8
MMIC_Label
  10
1588.11
  20
2072.72
  0
VERTEX
  8
MMIC_Label
  10
1586.79
  20
2071.07
  0
VERTEX
  8
MMIC_Label
  10
1585.14
  20
2069.75
  0
VERTEX
  8
MMIC_Label
  10
1583.16
  20
2068.43
  0
VERTEX
  8
MMIC_Label
  10
1581.18
  20
2068.1
  0
SEQEND
  0
POLYLINE
  8
MMIC_Label
  70
1
  66
1
  0
VERTEX
  8
MMIC_Label
  10
1589.272
  20
1978.29
  0
VERTEX
  8
MMIC_Label
  10
1587.876
  20
1978.29
  0
VERTEX
  8
MMIC_Label
  10
1587.36
  20
1976.951
  0
VERTEX
  8
MMIC_Label
  10
1586.177
  20
1975.593
  0
VERTEX
  8
MMIC_Label
  10
1584.991
  20
1974.232
  0
VERTEX
  8
MMIC_Label
  10
1583.359
  20
1973.246
  0
VERTEX
  8
MMIC_Label
  10
1583.359
  20
1970.722
  0
VERTEX
  8
MMIC_Label
  10
1583.383
  20
1970.706
  0
VERTEX
  8
MMIC_Label
  10
1583.408
  20
1970.691
  0
VERTEX
  8
MMIC_Label
  10
1584.399
  20
1971.161
  0
VERTEX
  8
MMIC_Label
  10
1585.524
  20
1972.009
  0
VERTEX
  8
MMIC_Label
  10
1586.65
  20
1972.859
  0
VERTEX
  8
MMIC_Label
  10
1587.168
  20
1973.493
  0
VERTEX
  8
MMIC_Label
  10
1587.168
  20
1958.09
  0
VERTEX
  8
MMIC_Label
  10
1589.272
  20
1958.09
  0
SEQEND
  0
POLYLINE
  8
MMIC_Label
  70
1
  66
1
  0
VERTEX
  8
MMIC_Label
  10
1572.6
  20
2080.31
  0
VERTEX
  8
MMIC_Label
  10
1572.27
  20
2082.29
  0
VERTEX
  8
MMIC_Label
  10
1572.27
  20
2086.91
  0
VERTEX
  8
MMIC_Label
  10
1572.6
  20
2088.89
  0
VERTEX
  8
MMIC_Label
  10
1573.26
  20
2090.87
  0
VERTEX
  8
MMIC_Label
  10
1573.92
  20
2092.52
  0
VERTEX
  8
MMIC_Label
  10
1574.91
  20
2094.17
  0
VERTEX
  8
MMIC_Label
  10
1575.9
  20
2095.16
  0
VERTEX
  8
MMIC_Label
  10
1577.22
  20
2095.82
  0
VERTEX
  8
MMIC_Label
  10
1578.87
  20
2096.15
  0
VERTEX
  8
MMIC_Label
  10
1580.19
  20
2095.82
  0
VERTEX
  8
MMIC_Label
  10
1581.51
  20
2095.16
  0
VERTEX
  8
MMIC_Label
  10
1582.83
  20
2094.17
  0
SEQEND
  0
POLYLINE
  8
MMIC_Label
  70
1
  66
1
  0
VERTEX
  8
MMIC_Label
  10
1574.528
  20
1965.69
  0
VERTEX
  8
MMIC_Label
  10
1570.73
  20
1972.619
  0
VERTEX
  8
MMIC_Label
  10
1573.11
  20
1972.619
  0
VERTEX
  8
MMIC_Label
  10
1574.835
  20
1969.236
  0
VERTEX
  8
MMIC_Label
  10
1575.321
  20
1968.272
  0
VERTEX
  8
MMIC_Label
  10
1575.618
  20
1967.619
  0
VERTEX
  8
MMIC_Label
  10
1576.083
  20
1968.516
  0
VERTEX
  8
MMIC_Label
  10
1576.475
  20
1969.209
  0
VERTEX
  8
MMIC_Label
  10
1578.368
  20
1972.619
  0
VERTEX
  8
MMIC_Label
  10
1580.643
  20
1972.619
  0
VERTEX
  8
MMIC_Label
  10
1576.76
  20
1965.826
  0
VERTEX
  8
MMIC_Label
  10
1580.939
  20
1958.19
  0
VERTEX
  8
MMIC_Label
  10
1578.601
  20
1958.19
  0
VERTEX
  8
MMIC_Label
  10
1576.295
  20
1962.674
  0
VERTEX
  8
MMIC_Label
  10
1575.681
  20
1963.883
  0
VERTEX
  8
MMIC_Label
  10
1572.729
  20
1958.19
  0
VERTEX
  8
MMIC_Label
  10
1570.423
  20
1958.19
  0
SEQEND
  0
POLYLINE
  8
MMIC_Label
  70
1
  66
1
  0
VERTEX
  8
MMIC_Label
  10
1789.03
  20
2433.275
  0
VERTEX
  8
MMIC_Label
  10
1788.7
  20
2435.255
  0
VERTEX
  8
MMIC_Label
  10
1788.7
  20
2439.875
  0
VERTEX
  8
MMIC_Label
  10
1789.03
  20
2441.855
  0
VERTEX
  8
MMIC_Label
  10
1789.69
  20
2443.835
  0
VERTEX
  8
MMIC_Label
  10
1790.35
  20
2445.485
  0
VERTEX
  8
MMIC_Label
  10
1791.34
  20
2447.135
  0
VERTEX
  8
MMIC_Label
  10
1792.33
  20
2448.125
  0
VERTEX
  8
MMIC_Label
  10
1793.65
  20
2448.785
  0
VERTEX
  8
MMIC_Label
  10
1795.3
  20
2449.115
  0
VERTEX
  8
MMIC_Label
  10
1796.62
  20
2448.785
  0
VERTEX
  8
MMIC_Label
  10
1797.94
  20
2448.125
  0
VERTEX
  8
MMIC_Label
  10
1799.26
  20
2447.135
  0
SEQEND
  0
POLYLINE
  8
MMIC_Label
  70
1
  66
1
  0
VERTEX
  8
MMIC_Label
  10
1703.2
  20
2048.1
  0
VERTEX
  8
MMIC_Label
  10
1718.2
  20
2048.1
  0
VERTEX
  8
MMIC_Label
  10
1718.2
  20
2043.1
  0
VERTEX
  8
MMIC_Label
  10
1703.2
  20
2043.1
  0
SEQEND
  0
POLYLINE
  8
MMIC_Label
  70
1
  66
1
  0
VERTEX
  8
MMIC_Label
  10
1609.96
  20
1958.19
  0
VERTEX
  8
MMIC_Label
  10
1605.781
  20
1965.826
  0
VERTEX
  8
MMIC_Label
  10
1609.664
  20
1972.619
  0
VERTEX
  8
MMIC_Label
  10
1606.839
  20
1972.619
  0
VERTEX
  8
MMIC_Label
  10
1604.946
  20
1969.209
  0
VERTEX
  8
MMIC_Label
  10
1604.554
  20
1968.516
  0
VERTEX
  8
MMIC_Label
  10
1604.089
  20
1967.619
  0
VERTEX
  8
MMIC_Label
  10
1603.792
  20
1968.272
  0
VERTEX
  8
MMIC_Label
  10
1603.306
  20
1969.236
  0
VERTEX
  8
MMIC_Label
  10
1601.581
  20
1972.619
  0
VERTEX
  8
MMIC_Label
  10
1598.651
  20
1972.619
  0
VERTEX
  8
MMIC_Label
  10
1602.449
  20
1965.69
  0
VERTEX
  8
MMIC_Label
  10
1598.344
  20
1958.19
  0
VERTEX
  8
MMIC_Label
  10
1601.2
  20
1958.19
  0
VERTEX
  8
MMIC_Label
  10
1604.152
  20
1963.883
  0
VERTEX
  8
MMIC_Label
  10
1604.766
  20
1962.674
  0
VERTEX
  8
MMIC_Label
  10
1607.072
  20
1958.19
  0
SEQEND
  0
POLYLINE
  8
MMIC_Label
  70
1
  66
1
  0
VERTEX
  8
MMIC_Label
  10
1695.072
  20
1958.19
  0
VERTEX
  8
MMIC_Label
  10
1690.893
  20
1965.826
  0
VERTEX
  8
MMIC_Label
  10
1694.776
  20
1972.619
  0
VERTEX
  8
MMIC_Label
  10
1691.951
  20
1972.619
  0
VERTEX
  8
MMIC_Label
  10
1690.058
  20
1969.209
  0
VERTEX
  8
MMIC_Label
  10
1689.666
  20
1968.516
  0
VERTEX
  8
MMIC_Label
  10
1689.201
  20
1967.619
  0
VERTEX
  8
MMIC_Label
  10
1688.904
  20
1968.272
  0
VERTEX
  8
MMIC_Label
  10
1688.418
  20
1969.236
  0
VERTEX
  8
MMIC_Label
  10
1686.693
  20
1972.619
  0
VERTEX
  8
MMIC_Label
  10
1683.763
  20
1972.619
  0
VERTEX
  8
MMIC_Label
  10
1687.561
  20
1965.69
  0
VERTEX
  8
MMIC_Label
  10
1683.456
  20
1958.19
  0
VERTEX
  8
MMIC_Label
  10
1686.312
  20
1958.19
  0
VERTEX
  8
MMIC_Label
  10
1689.264
  20
1963.883
  0
VERTEX
  8
MMIC_Label
  10
1689.878
  20
1962.674
  0
VERTEX
  8
MMIC_Label
  10
1692.184
  20
1958.19
  0
SEQEND
  0
POLYLINE
  8
MMIC_Label
  70
1
  66
1
  0
VERTEX
  8
MMIC_Label
  10
1578.87
  20
2073.05
  0
VERTEX
  8
MMIC_Label
  10
1577.22
  20
2073.38
  0
VERTEX
  8
MMIC_Label
  10
1575.9
  20
2074.04
  0
VERTEX
  8
MMIC_Label
  10
1574.91
  20
2075.03
  0
VERTEX
  8
MMIC_Label
  10
1584.81
  20
2088.89
  0
VERTEX
  8
MMIC_Label
  10
1585.14
  20
2086.91
  0
VERTEX
  8
MMIC_Label
  10
1585.47
  20
2084.6
  0
VERTEX
  8
MMIC_Label
  10
1585.14
  20
2082.29
  0
VERTEX
  8
MMIC_Label
  10
1584.48
  20
2078.33
  0
VERTEX
  8
MMIC_Label
  10
1583.82
  20
2076.68
  0
VERTEX
  8
MMIC_Label
  10
1582.83
  20
2075.03
  0
VERTEX
  8
MMIC_Label
  10
1581.51
  20
2074.04
  0
VERTEX
  8
MMIC_Label
  10
1580.19
  20
2073.38
  0
SEQEND
  0
POLYLINE
  8
MMIC_Label
  70
1
  66
1
  0
VERTEX
  8
MMIC_Label
  10
1789.03
  20
62.25
  0
VERTEX
  8
MMIC_Label
  10
1788.7
  20
64.23
  0
VERTEX
  8
MMIC_Label
  10
1788.7
  20
68.85
  0
VERTEX
  8
MMIC_Label
  10
1789.03
  20
70.83
  0
VERTEX
  8
MMIC_Label
  10
1789.69
  20
72.81
  0
VERTEX
  8
MMIC_Label
  10
1790.35
  20
74.46
  0
VERTEX
  8
MMIC_Label
  10
1791.34
  20
76.11
  0
VERTEX
  8
MMIC_Label
  10
1792.33
  20
77.1
  0
VERTEX
  8
MMIC_Label
  10
1793.65
  20
77.76
  0
VERTEX
  8
MMIC_Label
  10
1795.3
  20
78.09
  0
VERTEX
  8
MMIC_Label
  10
1796.62
  20
77.76
  0
VERTEX
  8
MMIC_Label
  10
1797.94
  20
77.1
  0
VERTEX
  8
MMIC_Label
  10
1799.26
  20
76.11
  0
SEQEND
  0
POLYLINE
  8
MMIC_Label
  70
1
  66
1
  0
VERTEX
  8
MMIC_Label
  10
1792.66
  20
50.04
  0
VERTEX
  8
MMIC_Label
  10
1790.68
  20
50.37
  0
VERTEX
  8
MMIC_Label
  10
1788.7
  20
51.69
  0
VERTEX
  8
MMIC_Label
  10
1788.04
  20
52.35
  0
VERTEX
  8
MMIC_Label
  10
1786.06
  20
50.04
  0
VERTEX
  8
MMIC_Label
  10
1782.43
  20
53.34
  0
VERTEX
  8
MMIC_Label
  10
1784.74
  20
56.31
  0
VERTEX
  8
MMIC_Label
  10
1784.41
  20
56.97
  0
VERTEX
  8
MMIC_Label
  10
1783.75
  20
58.95
  0
VERTEX
  8
MMIC_Label
  10
1783.09
  20
61.59
  0
VERTEX
  8
MMIC_Label
  10
1782.76
  20
63.9
  0
VERTEX
  8
MMIC_Label
  10
1782.43
  20
66.54
  0
VERTEX
  8
MMIC_Label
  10
1782.76
  20
69.18
  0
VERTEX
  8
MMIC_Label
  10
1783.09
  20
71.49
  0
VERTEX
  8
MMIC_Label
  10
1783.75
  20
74.13
  0
VERTEX
  8
MMIC_Label
  10
1784.41
  20
76.11
  0
VERTEX
  8
MMIC_Label
  10
1785.73
  20
78.42
  0
VERTEX
  8
MMIC_Label
  10
1787.05
  20
80.07
  0
VERTEX
  8
MMIC_Label
  10
1788.7
  20
81.39
  0
VERTEX
  8
MMIC_Label
  10
1790.68
  20
82.71
  0
VERTEX
  8
MMIC_Label
  10
1792.66
  20
83.04
  0
VERTEX
  8
MMIC_Label
  10
1797.61
  20
83.04
  0
VERTEX
  8
MMIC_Label
  10
1799.59
  20
82.71
  0
VERTEX
  8
MMIC_Label
  10
1801.57
  20
81.39
  0
VERTEX
  8
MMIC_Label
  10
1802.56
  20
80.4
  0
VERTEX
  8
MMIC_Label
  10
1804.54
  20
83.04
  0
VERTEX
  8
MMIC_Label
  10
1807.84
  20
80.07
  0
VERTEX
  8
MMIC_Label
  10
1805.53
  20
76.77
  0
VERTEX
  8
MMIC_Label
  10
1806.85
  20
74.13
  0
VERTEX
  8
MMIC_Label
  10
1807.18
  20
71.49
  0
VERTEX
  8
MMIC_Label
  10
1807.84
  20
69.18
  0
VERTEX
  8
MMIC_Label
  10
1807.84
  20
63.9
  0
VERTEX
  8
MMIC_Label
  10
1807.18
  20
61.59
  0
VERTEX
  8
MMIC_Label
  10
1806.85
  20
58.95
  0
VERTEX
  8
MMIC_Label
  10
1805.86
  20
56.97
  0
VERTEX
  8
MMIC_Label
  10
1804.54
  20
54.66
  0
VERTEX
  8
MMIC_Label
  10
1803.22
  20
53.01
  0
VERTEX
  8
MMIC_Label
  10
1801.57
  20
51.69
  0
VERTEX
  8
MMIC_Label
  10
1799.59
  20
50.37
  0
VERTEX
  8
MMIC_Label
  10
1797.61
  20
50.04
  0
SEQEND
  0
POLYLINE
  8
MMIC_Label
  70
1
  66
1
  0
VERTEX
  8
MMIC_Label
  10
1578.87
  20
2073.05
  0
VERTEX
  8
MMIC_Label
  10
1577.22
  20
2073.38
  0
VERTEX
  8
MMIC_Label
  10
1575.9
  20
2074.04
  0
VERTEX
  8
MMIC_Label
  10
1574.91
  20
2075.03
  0
VERTEX
  8
MMIC_Label
  10
1584.81
  20
2088.89
  0
VERTEX
  8
MMIC_Label
  10
1585.14
  20
2086.91
  0
VERTEX
  8
MMIC_Label
  10
1585.47
  20
2084.6
  0
VERTEX
  8
MMIC_Label
  10
1585.14
  20
2082.29
  0
VERTEX
  8
MMIC_Label
  10
1584.48
  20
2078.33
  0
VERTEX
  8
MMIC_Label
  10
1583.82
  20
2076.68
  0
VERTEX
  8
MMIC_Label
  10
1582.83
  20
2075.03
  0
VERTEX
  8
MMIC_Label
  10
1581.51
  20
2074.04
  0
VERTEX
  8
MMIC_Label
  10
1580.19
  20
2073.38
  0
SEQEND
  0
POLYLINE
  8
MMIC_Label
  70
1
  66
1
  0
VERTEX
  8
MMIC_Label
  10
1568.2
  20
1983.7
  0
VERTEX
  8
MMIC_Label
  10
1568.2
  20
2048.1
  0
VERTEX
  8
MMIC_Label
  10
1563.2
  20
2048.1
  0
VERTEX
  8
MMIC_Label
  10
1563.2
  20
1983.7
  0
SEQEND
  0
POLYLINE
  8
MMIC_Label
  70
1
  66
1
  0
VERTEX
  8
MMIC_Label
  10
1556.5
  20
1995.3
  0
VERTEX
  8
MMIC_Label
  10
1554.8
  20
1993.6
  0
VERTEX
  8
MMIC_Label
  10
1552.8
  20
1992.6
  0
VERTEX
  8
MMIC_Label
  10
1549
  20
1992.6
  0
VERTEX
  8
MMIC_Label
  10
1547.1
  20
1993.7
  0
VERTEX
  8
MMIC_Label
  10
1545.5
  20
1995.5
  0
VERTEX
  8
MMIC_Label
  10
1544.6
  20
1997.1
  0
VERTEX
  8
MMIC_Label
  10
1543.7
  20
1999.7
  0
VERTEX
  8
MMIC_Label
  10
1543.7
  20
2002.2
  0
VERTEX
  8
MMIC_Label
  10
1544.6
  20
2004.6
  0
VERTEX
  8
MMIC_Label
  10
1545.5
  20
2006.4
  0
VERTEX
  8
MMIC_Label
  10
1547.2
  20
2008.1
  0
VERTEX
  8
MMIC_Label
  10
1549.2
  20
2009.1
  0
VERTEX
  8
MMIC_Label
  10
1553
  20
2009.1
  0
VERTEX
  8
MMIC_Label
  10
1554.7
  20
2008.1
  0
VERTEX
  8
MMIC_Label
  10
1556.5
  20
2006.4
  0
VERTEX
  8
MMIC_Label
  10
1557.4
  20
2004.7
  0
VERTEX
  8
MMIC_Label
  10
1554.7
  20
2003.3
  0
VERTEX
  8
MMIC_Label
  10
1554.1
  20
2004.6
  0
VERTEX
  8
MMIC_Label
  10
1552.9
  20
2005.6
  0
VERTEX
  8
MMIC_Label
  10
1552.2
  20
2006.1
  0
VERTEX
  8
MMIC_Label
  10
1549.9
  20
2006.1
  0
VERTEX
  8
MMIC_Label
  10
1549
  20
2005.6
  0
VERTEX
  8
MMIC_Label
  10
1548
  20
2004.6
  0
VERTEX
  8
MMIC_Label
  10
1547.4
  20
2003.4
  0
VERTEX
  8
MMIC_Label
  10
1546.7
  20
2001.6
  0
VERTEX
  8
MMIC_Label
  10
1546.7
  20
2000.2
  0
VERTEX
  8
MMIC_Label
  10
1547.4
  20
1998.3
  0
VERTEX
  8
MMIC_Label
  10
1548
  20
1997.2
  0
VERTEX
  8
MMIC_Label
  10
1549
  20
1996
  0
VERTEX
  8
MMIC_Label
  10
1549.8
  20
1995.6
  0
VERTEX
  8
MMIC_Label
  10
1552.1
  20
1995.6
  0
VERTEX
  8
MMIC_Label
  10
1553
  20
1996.1
  0
VERTEX
  8
MMIC_Label
  10
1554
  20
1997.1
  0
VERTEX
  8
MMIC_Label
  10
1554.7
  20
1998.4
  0
VERTEX
  8
MMIC_Label
  10
1557.4
  20
1997
  0
SEQEND
  0
POLYLINE
  8
MMIC_Label
  70
1
  66
1
  0
VERTEX
  8
MMIC_Label
  10
1792.66
  20
50.04
  0
VERTEX
  8
MMIC_Label
  10
1790.68
  20
50.37
  0
VERTEX
  8
MMIC_Label
  10
1788.7
  20
51.69
  0
VERTEX
  8
MMIC_Label
  10
1788.04
  20
52.35
  0
VERTEX
  8
MMIC_Label
  10
1786.06
  20
50.04
  0
VERTEX
  8
MMIC_Label
  10
1782.43
  20
53.34
  0
VERTEX
  8
MMIC_Label
  10
1784.74
  20
56.31
  0
VERTEX
  8
MMIC_Label
  10
1784.41
  20
56.97
  0
VERTEX
  8
MMIC_Label
  10
1783.75
  20
58.95
  0
VERTEX
  8
MMIC_Label
  10
1783.09
  20
61.59
  0
VERTEX
  8
MMIC_Label
  10
1782.76
  20
63.9
  0
VERTEX
  8
MMIC_Label
  10
1782.43
  20
66.54
  0
VERTEX
  8
MMIC_Label
  10
1782.76
  20
69.18
  0
VERTEX
  8
MMIC_Label
  10
1783.09
  20
71.49
  0
VERTEX
  8
MMIC_Label
  10
1783.75
  20
74.13
  0
VERTEX
  8
MMIC_Label
  10
1784.41
  20
76.11
  0
VERTEX
  8
MMIC_Label
  10
1785.73
  20
78.42
  0
VERTEX
  8
MMIC_Label
  10
1787.05
  20
80.07
  0
VERTEX
  8
MMIC_Label
  10
1788.7
  20
81.39
  0
VERTEX
  8
MMIC_Label
  10
1790.68
  20
82.71
  0
VERTEX
  8
MMIC_Label
  10
1792.66
  20
83.04
  0
VERTEX
  8
MMIC_Label
  10
1797.61
  20
83.04
  0
VERTEX
  8
MMIC_Label
  10
1799.59
  20
82.71
  0
VERTEX
  8
MMIC_Label
  10
1801.57
  20
81.39
  0
VERTEX
  8
MMIC_Label
  10
1802.56
  20
80.4
  0
VERTEX
  8
MMIC_Label
  10
1804.54
  20
83.04
  0
VERTEX
  8
MMIC_Label
  10
1807.84
  20
80.07
  0
VERTEX
  8
MMIC_Label
  10
1805.53
  20
76.77
  0
VERTEX
  8
MMIC_Label
  10
1806.85
  20
74.13
  0
VERTEX
  8
MMIC_Label
  10
1807.18
  20
71.49
  0
VERTEX
  8
MMIC_Label
  10
1807.84
  20
69.18
  0
VERTEX
  8
MMIC_Label
  10
1807.84
  20
63.9
  0
VERTEX
  8
MMIC_Label
  10
1807.18
  20
61.59
  0
VERTEX
  8
MMIC_Label
  10
1806.85
  20
58.95
  0
VERTEX
  8
MMIC_Label
  10
1805.86
  20
56.97
  0
VERTEX
  8
MMIC_Label
  10
1804.54
  20
54.66
  0
VERTEX
  8
MMIC_Label
  10
1803.22
  20
53.01
  0
VERTEX
  8
MMIC_Label
  10
1801.57
  20
51.69
  0
VERTEX
  8
MMIC_Label
  10
1799.59
  20
50.37
  0
VERTEX
  8
MMIC_Label
  10
1797.61
  20
50.04
  0
SEQEND
  0
POLYLINE
  8
MMIC_Label
  70
1
  66
1
  0
VERTEX
  8
MMIC_Label
  10
1789.03
  20
2433.275
  0
VERTEX
  8
MMIC_Label
  10
1788.7
  20
2435.255
  0
VERTEX
  8
MMIC_Label
  10
1788.7
  20
2439.875
  0
VERTEX
  8
MMIC_Label
  10
1789.03
  20
2441.855
  0
VERTEX
  8
MMIC_Label
  10
1789.69
  20
2443.835
  0
VERTEX
  8
MMIC_Label
  10
1790.35
  20
2445.485
  0
VERTEX
  8
MMIC_Label
  10
1791.34
  20
2447.135
  0
VERTEX
  8
MMIC_Label
  10
1792.33
  20
2448.125
  0
VERTEX
  8
MMIC_Label
  10
1793.65
  20
2448.785
  0
VERTEX
  8
MMIC_Label
  10
1795.3
  20
2449.115
  0
VERTEX
  8
MMIC_Label
  10
1796.62
  20
2448.785
  0
VERTEX
  8
MMIC_Label
  10
1797.94
  20
2448.125
  0
VERTEX
  8
MMIC_Label
  10
1799.26
  20
2447.135
  0
SEQEND
  0
POLYLINE
  8
MMIC_Label
  70
1
  66
1
  0
VERTEX
  8
MMIC_Label
  10
1553.2
  20
2048.1
  0
VERTEX
  8
MMIC_Label
  10
1578.2
  20
2048.1
  0
VERTEX
  8
MMIC_Label
  10
1578.2
  20
2043.1
  0
VERTEX
  8
MMIC_Label
  10
1553.2
  20
2043.1
  0
SEQEND
  0
POLYLINE
  8
MMIC_Label
  70
1
  66
1
  0
VERTEX
  8
MMIC_Label
  10
1750.62
  20
57.3
  0
VERTEX
  8
MMIC_Label
  10
1753.26
  20
53.34
  0
VERTEX
  8
MMIC_Label
  10
1754.91
  20
52.02
  0
VERTEX
  8
MMIC_Label
  10
1756.56
  20
51.03
  0
VERTEX
  8
MMIC_Label
  10
1758.54
  20
50.04
  0
VERTEX
  8
MMIC_Label
  10
1765.47
  20
50.04
  0
VERTEX
  8
MMIC_Label
  10
1768.11
  20
50.37
  0
VERTEX
  8
MMIC_Label
  10
1772.07
  20
53.01
  0
VERTEX
  8
MMIC_Label
  10
1773.72
  20
54.66
  0
VERTEX
  8
MMIC_Label
  10
1775.04
  20
56.97
  0
VERTEX
  8
MMIC_Label
  10
1776.03
  20
58.95
  0
VERTEX
  8
MMIC_Label
  10
1776.69
  20
61.59
  0
VERTEX
  8
MMIC_Label
  10
1777.02
  20
63.9
  0
VERTEX
  8
MMIC_Label
  10
1777.35
  20
66.54
  0
VERTEX
  8
MMIC_Label
  10
1777.02
  20
69.18
  0
VERTEX
  8
MMIC_Label
  10
1776.69
  20
71.49
  0
VERTEX
  8
MMIC_Label
  10
1776.03
  20
74.13
  0
VERTEX
  8
MMIC_Label
  10
1775.04
  20
76.11
  0
VERTEX
  8
MMIC_Label
  10
1773.72
  20
78.42
  0
VERTEX
  8
MMIC_Label
  10
1772.07
  20
80.07
  0
VERTEX
  8
MMIC_Label
  10
1768.11
  20
82.71
  0
VERTEX
  8
MMIC_Label
  10
1765.47
  20
83.04
  0
VERTEX
  8
MMIC_Label
  10
1758.54
  20
83.04
  0
VERTEX
  8
MMIC_Label
  10
1756.56
  20
82.38
  0
VERTEX
  8
MMIC_Label
  10
1754.58
  20
81.06
  0
VERTEX
  8
MMIC_Label
  10
1752.93
  20
79.74
  0
VERTEX
  8
MMIC_Label
  10
1751.61
  20
78.42
  0
VERTEX
  8
MMIC_Label
  10
1750.62
  20
76.44
  0
VERTEX
  8
MMIC_Label
  10
1749.96
  20
74.46
  0
VERTEX
  8
MMIC_Label
  10
1749.63
  20
72.15
  0
VERTEX
  8
MMIC_Label
  10
1749.96
  20
69.51
  0
VERTEX
  8
MMIC_Label
  10
1750.62
  20
67.53
  0
VERTEX
  8
MMIC_Label
  10
1751.94
  20
65.88
  0
VERTEX
  8
MMIC_Label
  10
1753.59
  20
64.23
  0
VERTEX
  8
MMIC_Label
  10
1755.24
  20
63.24
  0
VERTEX
  8
MMIC_Label
  10
1757.55
  20
62.25
  0
VERTEX
  8
MMIC_Label
  10
1759.53
  20
61.92
  0
VERTEX
  8
MMIC_Label
  10
1761.84
  20
61.59
  0
VERTEX
  8
MMIC_Label
  10
1764.15
  20
61.92
  0
VERTEX
  8
MMIC_Label
  10
1766.46
  20
62.58
  0
VERTEX
  8
MMIC_Label
  10
1768.77
  20
63.9
  0
VERTEX
  8
MMIC_Label
  10
1770.42
  20
65.55
  0
VERTEX
  8
MMIC_Label
  10
1770.42
  20
63.57
  0
VERTEX
  8
MMIC_Label
  10
1770.09
  20
61.92
  0
VERTEX
  8
MMIC_Label
  10
1769.43
  20
59.94
  0
VERTEX
  8
MMIC_Label
  10
1768.77
  20
58.29
  0
VERTEX
  8
MMIC_Label
  10
1767.45
  20
56.64
  0
VERTEX
  8
MMIC_Label
  10
1766.13
  20
55.65
  0
VERTEX
  8
MMIC_Label
  10
1764.48
  20
54.66
  0
VERTEX
  8
MMIC_Label
  10
1762.17
  20
54.33
  0
VERTEX
  8
MMIC_Label
  10
1760.52
  20
54.66
  0
VERTEX
  8
MMIC_Label
  10
1757.88
  20
55.98
  0
VERTEX
  8
MMIC_Label
  10
1756.89
  20
57.3
  0
SEQEND
  0
POLYLINE
  8
MMIC_Label
  70
1
  66
1
  0
VERTEX
  8
MMIC_Label
  10
108.03
  20
285.44
  0
VERTEX
  8
MMIC_Label
  10
108.03
  20
318.44
  0
VERTEX
  8
MMIC_Label
  10
121.89
  20
318.44
  0
VERTEX
  8
MMIC_Label
  10
124.53
  20
318.11
  0
VERTEX
  8
MMIC_Label
  10
126.84
  20
317.45
  0
VERTEX
  8
MMIC_Label
  10
128.82
  20
316.46
  0
VERTEX
  8
MMIC_Label
  10
130.47
  20
315.14
  0
VERTEX
  8
MMIC_Label
  10
132.12
  20
313.16
  0
VERTEX
  8
MMIC_Label
  10
134.1
  20
309.2
  0
VERTEX
  8
MMIC_Label
  10
134.76
  20
306.89
  0
VERTEX
  8
MMIC_Label
  10
135.42
  20
304.25
  0
VERTEX
  8
MMIC_Label
  10
135.42
  20
299.63
  0
VERTEX
  8
MMIC_Label
  10
134.76
  20
296.99
  0
VERTEX
  8
MMIC_Label
  10
134.1
  20
294.68
  0
VERTEX
  8
MMIC_Label
  10
132.12
  20
290.72
  0
VERTEX
  8
MMIC_Label
  10
130.47
  20
288.74
  0
VERTEX
  8
MMIC_Label
  10
128.82
  20
287.42
  0
VERTEX
  8
MMIC_Label
  10
126.84
  20
286.43
  0
VERTEX
  8
MMIC_Label
  10
124.53
  20
285.77
  0
VERTEX
  8
MMIC_Label
  10
121.89
  20
285.44
  0
SEQEND
  0
POLYLINE
  8
MMIC_Label
  70
1
  66
1
  0
VERTEX
  8
MMIC_Label
  10
1583.2
  20
2048.1
  0
VERTEX
  8
MMIC_Label
  10
1608.2
  20
2048.1
  0
VERTEX
  8
MMIC_Label
  10
1608.2
  20
2043.1
  0
VERTEX
  8
MMIC_Label
  10
1583.2
  20
2043.1
  0
SEQEND
  0
POLYLINE
  8
MMIC_Label
  70
1
  66
1
  0
VERTEX
  8
MMIC_Label
  10
179.04
  20
2014.17
  0
VERTEX
  8
MMIC_Label
  10
179.04
  20
2007.57
  0
VERTEX
  8
MMIC_Label
  10
156.93
  20
2007.57
  0
VERTEX
  8
MMIC_Label
  10
155.28
  20
2007.24
  0
VERTEX
  8
MMIC_Label
  10
153.96
  20
2006.58
  0
VERTEX
  8
MMIC_Label
  10
152.64
  20
2005.59
  0
VERTEX
  8
MMIC_Label
  10
151.32
  20
2002.95
  0
VERTEX
  8
MMIC_Label
  10
150.99
  20
2001.3
  0
VERTEX
  8
MMIC_Label
  10
150.99
  20
1999.65
  0
VERTEX
  8
MMIC_Label
  10
151.32
  20
1998
  0
VERTEX
  8
MMIC_Label
  10
151.98
  20
1996.35
  0
VERTEX
  8
MMIC_Label
  10
152.64
  20
1995.36
  0
VERTEX
  8
MMIC_Label
  10
153.96
  20
1994.04
  0
VERTEX
  8
MMIC_Label
  10
155.28
  20
1993.38
  0
VERTEX
  8
MMIC_Label
  10
179.04
  20
1993.38
  0
VERTEX
  8
MMIC_Label
  10
179.04
  20
1986.78
  0
VERTEX
  8
MMIC_Label
  10
153.3
  20
1986.78
  0
VERTEX
  8
MMIC_Label
  10
150
  20
1988.76
  0
VERTEX
  8
MMIC_Label
  10
148.68
  20
1990.08
  0
VERTEX
  8
MMIC_Label
  10
147.69
  20
1991.73
  0
VERTEX
  8
MMIC_Label
  10
146.7
  20
1993.71
  0
VERTEX
  8
MMIC_Label
  10
146.04
  20
1996.02
  0
VERTEX
  8
MMIC_Label
  10
146.04
  20
2004.93
  0
VERTEX
  8
MMIC_Label
  10
146.7
  20
2006.91
  0
VERTEX
  8
MMIC_Label
  10
147.69
  20
2008.89
  0
VERTEX
  8
MMIC_Label
  10
148.68
  20
2010.54
  0
VERTEX
  8
MMIC_Label
  10
150
  20
2012.19
  0
VERTEX
  8
MMIC_Label
  10
151.65
  20
2013.18
  0
VERTEX
  8
MMIC_Label
  10
153.3
  20
2013.84
  0
VERTEX
  8
MMIC_Label
  10
155.28
  20
2014.17
  0
SEQEND
  0
POLYLINE
  8
MMIC_Label
  70
1
  66
1
  0
VERTEX
  8
MMIC_Label
  10
1621.482
  20
1960.641
  0
VERTEX
  8
MMIC_Label
  10
1614.917
  20
1960.641
  0
VERTEX
  8
MMIC_Label
  10
1615.133
  20
1961.162
  0
VERTEX
  8
MMIC_Label
  10
1615.968
  20
1962.462
  0
VERTEX
  8
MMIC_Label
  10
1617.458
  20
1964.309
  0
VERTEX
  8
MMIC_Label
  10
1619.247
  20
1966.543
  0
VERTEX
  8
MMIC_Label
  10
1620.019
  20
1967.827
  0
VERTEX
  8
MMIC_Label
  10
1620.793
  20
1969.115
  0
VERTEX
  8
MMIC_Label
  10
1621.128
  20
1970.283
  0
VERTEX
  8
MMIC_Label
  10
1621.464
  20
1971.45
  0
VERTEX
  8
MMIC_Label
  10
1621.464
  20
1975.043
  0
VERTEX
  8
MMIC_Label
  10
1620.314
  20
1976.658
  0
VERTEX
  8
MMIC_Label
  10
1619.152
  20
1978.29
  0
VERTEX
  8
MMIC_Label
  10
1615.187
  20
1978.29
  0
VERTEX
  8
MMIC_Label
  10
1612.856
  20
1975.279
  0
VERTEX
  8
MMIC_Label
  10
1612.675
  20
1972.344
  0
VERTEX
  8
MMIC_Label
  10
1614.566
  20
1972.057
  0
VERTEX
  8
MMIC_Label
  10
1614.574
  20
1972.064
  0
VERTEX
  8
MMIC_Label
  10
1614.582
  20
1972.07
  0
VERTEX
  8
MMIC_Label
  10
1614.591
  20
1974.015
  0
VERTEX
  8
MMIC_Label
  10
1615.291
  20
1975.05
  0
VERTEX
  8
MMIC_Label
  10
1615.682
  20
1975.626
  0
VERTEX
  8
MMIC_Label
  10
1618.513
  20
1975.626
  0
VERTEX
  8
MMIC_Label
  10
1619.222
  20
1974.62
  0
VERTEX
  8
MMIC_Label
  10
1619.222
  20
1970.668
  0
VERTEX
  8
MMIC_Label
  10
1618.032
  20
1968.272
  0
VERTEX
  8
MMIC_Label
  10
1615.841
  20
1965.618
  0
VERTEX
  8
MMIC_Label
  10
1615.84
  20
1965.618
  0
VERTEX
  8
MMIC_Label
  10
1614.418
  20
1963.899
  0
VERTEX
  8
MMIC_Label
  10
1613.663
  20
1962.588
  0
VERTEX
  8
MMIC_Label
  10
1612.906
  20
1961.271
  0
VERTEX
  8
MMIC_Label
  10
1612.564
  20
1959.915
  0
VERTEX
  8
MMIC_Label
  10
1612.348
  20
1959.085
  0
VERTEX
  8
MMIC_Label
  10
1612.369
  20
1958.09
  0
VERTEX
  8
MMIC_Label
  10
1621.482
  20
1958.09
  0
SEQEND
  0
POLYLINE
  8
MMIC_Label
  70
1
  66
1
  0
VERTEX
  8
MMIC_Label
  10
1658
  20
2093.84
  0
VERTEX
  8
MMIC_Label
  10
1657.01
  20
2095.82
  0
VERTEX
  8
MMIC_Label
  10
1655.69
  20
2097.8
  0
VERTEX
  8
MMIC_Label
  10
1654.04
  20
2099.12
  0
VERTEX
  8
MMIC_Label
  10
1650.08
  20
2101.1
  0
VERTEX
  8
MMIC_Label
  10
1643.15
  20
2101.1
  0
VERTEX
  8
MMIC_Label
  10
1640.84
  20
2100.77
  0
VERTEX
  8
MMIC_Label
  10
1638.53
  20
2099.45
  0
VERTEX
  8
MMIC_Label
  10
1636.55
  20
2098.13
  0
VERTEX
  8
MMIC_Label
  10
1635.23
  20
2096.48
  0
VERTEX
  8
MMIC_Label
  10
1633.91
  20
2094.17
  0
VERTEX
  8
MMIC_Label
  10
1632.92
  20
2092.19
  0
VERTEX
  8
MMIC_Label
  10
1631.93
  20
2089.55
  0
VERTEX
  8
MMIC_Label
  10
1631.6
  20
2087.24
  0
VERTEX
  8
MMIC_Label
  10
1631.6
  20
2081.96
  0
VERTEX
  8
MMIC_Label
  10
1631.93
  20
2079.65
  0
VERTEX
  8
MMIC_Label
  10
1632.92
  20
2077.01
  0
VERTEX
  8
MMIC_Label
  10
1633.91
  20
2075.03
  0
VERTEX
  8
MMIC_Label
  10
1635.23
  20
2072.72
  0
VERTEX
  8
MMIC_Label
  10
1636.55
  20
2071.07
  0
VERTEX
  8
MMIC_Label
  10
1638.53
  20
2069.75
  0
VERTEX
  8
MMIC_Label
  10
1640.84
  20
2068.43
  0
VERTEX
  8
MMIC_Label
  10
1643.15
  20
2068.1
  0
VERTEX
  8
MMIC_Label
  10
1650.08
  20
2068.1
  0
VERTEX
  8
MMIC_Label
  10
1652.06
  20
2068.76
  0
VERTEX
  8
MMIC_Label
  10
1654.04
  20
2070.08
  0
VERTEX
  8
MMIC_Label
  10
1655.69
  20
2071.4
  0
VERTEX
  8
MMIC_Label
  10
1657.01
  20
2072.72
  0
VERTEX
  8
MMIC_Label
  10
1658.33
  20
2074.7
  0
VERTEX
  8
MMIC_Label
  10
1658.99
  20
2076.68
  0
VERTEX
  8
MMIC_Label
  10
1658.99
  20
2078.99
  0
VERTEX
  8
MMIC_Label
  10
1658.66
  20
2081.3
  0
VERTEX
  8
MMIC_Label
  10
1658
  20
2083.61
  0
VERTEX
  8
MMIC_Label
  10
1655.36
  20
2086.91
  0
VERTEX
  8
MMIC_Label
  10
1651.4
  20
2088.89
  0
VERTEX
  8
MMIC_Label
  10
1649.09
  20
2089.55
  0
VERTEX
  8
MMIC_Label
  10
1647.11
  20
2089.55
  0
VERTEX
  8
MMIC_Label
  10
1644.47
  20
2089.22
  0
VERTEX
  8
MMIC_Label
  10
1642.16
  20
2088.56
  0
VERTEX
  8
MMIC_Label
  10
1640.18
  20
2087.24
  0
VERTEX
  8
MMIC_Label
  10
1638.2
  20
2085.59
  0
VERTEX
  8
MMIC_Label
  10
1638.2
  20
2087.57
  0
VERTEX
  8
MMIC_Label
  10
1638.53
  20
2089.22
  0
VERTEX
  8
MMIC_Label
  10
1639.19
  20
2091.2
  0
VERTEX
  8
MMIC_Label
  10
1641.17
  20
2094.5
  0
VERTEX
  8
MMIC_Label
  10
1642.49
  20
2095.49
  0
VERTEX
  8
MMIC_Label
  10
1644.47
  20
2096.48
  0
VERTEX
  8
MMIC_Label
  10
1646.45
  20
2096.81
  0
VERTEX
  8
MMIC_Label
  10
1648.1
  20
2096.48
  0
VERTEX
  8
MMIC_Label
  10
1650.74
  20
2095.16
  0
VERTEX
  8
MMIC_Label
  10
1652.06
  20
2093.84
  0
SEQEND
  0
POLYLINE
  8
MMIC_Label
  70
1
  66
1
  0
VERTEX
  8
MMIC_Label
  10
179.04
  20
2014.17
  0
VERTEX
  8
MMIC_Label
  10
179.04
  20
2007.57
  0
VERTEX
  8
MMIC_Label
  10
156.93
  20
2007.57
  0
VERTEX
  8
MMIC_Label
  10
155.28
  20
2007.24
  0
VERTEX
  8
MMIC_Label
  10
153.96
  20
2006.58
  0
VERTEX
  8
MMIC_Label
  10
152.64
  20
2005.59
  0
VERTEX
  8
MMIC_Label
  10
151.32
  20
2002.95
  0
VERTEX
  8
MMIC_Label
  10
150.99
  20
2001.3
  0
VERTEX
  8
MMIC_Label
  10
150.99
  20
1999.65
  0
VERTEX
  8
MMIC_Label
  10
151.32
  20
1998
  0
VERTEX
  8
MMIC_Label
  10
151.98
  20
1996.35
  0
VERTEX
  8
MMIC_Label
  10
152.64
  20
1995.36
  0
VERTEX
  8
MMIC_Label
  10
153.96
  20
1994.04
  0
VERTEX
  8
MMIC_Label
  10
155.28
  20
1993.38
  0
VERTEX
  8
MMIC_Label
  10
179.04
  20
1993.38
  0
VERTEX
  8
MMIC_Label
  10
179.04
  20
1986.78
  0
VERTEX
  8
MMIC_Label
  10
153.3
  20
1986.78
  0
VERTEX
  8
MMIC_Label
  10
150
  20
1988.76
  0
VERTEX
  8
MMIC_Label
  10
148.68
  20
1990.08
  0
VERTEX
  8
MMIC_Label
  10
147.69
  20
1991.73
  0
VERTEX
  8
MMIC_Label
  10
146.7
  20
1993.71
  0
VERTEX
  8
MMIC_Label
  10
146.04
  20
1996.02
  0
VERTEX
  8
MMIC_Label
  10
146.04
  20
2004.93
  0
VERTEX
  8
MMIC_Label
  10
146.7
  20
2006.91
  0
VERTEX
  8
MMIC_Label
  10
147.69
  20
2008.89
  0
VERTEX
  8
MMIC_Label
  10
148.68
  20
2010.54
  0
VERTEX
  8
MMIC_Label
  10
150
  20
2012.19
  0
VERTEX
  8
MMIC_Label
  10
151.65
  20
2013.18
  0
VERTEX
  8
MMIC_Label
  10
153.3
  20
2013.84
  0
VERTEX
  8
MMIC_Label
  10
155.28
  20
2014.17
  0
SEQEND
  0
POLYLINE
  8
MMIC_Label
  70
1
  66
1
  0
VERTEX
  8
MMIC_Label
  10
1641.8
  20
1958.19
  0
VERTEX
  8
MMIC_Label
  10
1637.621
  20
1965.826
  0
VERTEX
  8
MMIC_Label
  10
1641.504
  20
1972.619
  0
VERTEX
  8
MMIC_Label
  10
1638.679
  20
1972.619
  0
VERTEX
  8
MMIC_Label
  10
1636.786
  20
1969.209
  0
VERTEX
  8
MMIC_Label
  10
1636.394
  20
1968.516
  0
VERTEX
  8
MMIC_Label
  10
1635.929
  20
1967.619
  0
VERTEX
  8
MMIC_Label
  10
1635.632
  20
1968.272
  0
VERTEX
  8
MMIC_Label
  10
1635.146
  20
1969.236
  0
VERTEX
  8
MMIC_Label
  10
1633.421
  20
1972.619
  0
VERTEX
  8
MMIC_Label
  10
1630.491
  20
1972.619
  0
VERTEX
  8
MMIC_Label
  10
1634.289
  20
1965.69
  0
VERTEX
  8
MMIC_Label
  10
1630.184
  20
1958.19
  0
VERTEX
  8
MMIC_Label
  10
1633.04
  20
1958.19
  0
VERTEX
  8
MMIC_Label
  10
1635.992
  20
1963.883
  0
VERTEX
  8
MMIC_Label
  10
1636.606
  20
1962.674
  0
VERTEX
  8
MMIC_Label
  10
1638.912
  20
1958.19
  0
SEQEND
  0
POLYLINE
  8
MMIC_Label
  70
1
  66
1
  0
VERTEX
  8
MMIC_Label
  10
108.03
  20
285.44
  0
VERTEX
  8
MMIC_Label
  10
108.03
  20
318.44
  0
VERTEX
  8
MMIC_Label
  10
121.89
  20
318.44
  0
VERTEX
  8
MMIC_Label
  10
124.53
  20
318.11
  0
VERTEX
  8
MMIC_Label
  10
126.84
  20
317.45
  0
VERTEX
  8
MMIC_Label
  10
128.82
  20
316.46
  0
VERTEX
  8
MMIC_Label
  10
130.47
  20
315.14
  0
VERTEX
  8
MMIC_Label
  10
132.12
  20
313.16
  0
VERTEX
  8
MMIC_Label
  10
134.1
  20
309.2
  0
VERTEX
  8
MMIC_Label
  10
134.76
  20
306.89
  0
VERTEX
  8
MMIC_Label
  10
135.42
  20
304.25
  0
VERTEX
  8
MMIC_Label
  10
135.42
  20
299.63
  0
VERTEX
  8
MMIC_Label
  10
134.76
  20
296.99
  0
VERTEX
  8
MMIC_Label
  10
134.1
  20
294.68
  0
VERTEX
  8
MMIC_Label
  10
132.12
  20
290.72
  0
VERTEX
  8
MMIC_Label
  10
130.47
  20
288.74
  0
VERTEX
  8
MMIC_Label
  10
128.82
  20
287.42
  0
VERTEX
  8
MMIC_Label
  10
126.84
  20
286.43
  0
VERTEX
  8
MMIC_Label
  10
124.53
  20
285.77
  0
VERTEX
  8
MMIC_Label
  10
121.89
  20
285.44
  0
SEQEND
  0
POLYLINE
  8
MMIC_Label
  70
1
  66
1
  0
VERTEX
  8
MMIC_Label
  10
69.82
  20
307.88
  0
VERTEX
  8
MMIC_Label
  10
69.16
  20
310.19
  0
VERTEX
  8
MMIC_Label
  10
68.17
  20
312.5
  0
VERTEX
  8
MMIC_Label
  10
66.85
  20
314.15
  0
VERTEX
  8
MMIC_Label
  10
65.2
  20
315.8
  0
VERTEX
  8
MMIC_Label
  10
63.55
  20
317.12
  0
VERTEX
  8
MMIC_Label
  10
61.24
  20
318.11
  0
VERTEX
  8
MMIC_Label
  10
59.26
  20
318.44
  0
VERTEX
  8
MMIC_Label
  10
53.98
  20
318.44
  0
VERTEX
  8
MMIC_Label
  10
51.67
  20
318.11
  0
VERTEX
  8
MMIC_Label
  10
49.36
  20
316.79
  0
VERTEX
  8
MMIC_Label
  10
47.71
  20
315.47
  0
VERTEX
  8
MMIC_Label
  10
46.06
  20
313.82
  0
VERTEX
  8
MMIC_Label
  10
44.74
  20
311.51
  0
VERTEX
  8
MMIC_Label
  10
43.75
  20
309.53
  0
VERTEX
  8
MMIC_Label
  10
43.09
  20
306.89
  0
VERTEX
  8
MMIC_Label
  10
42.76
  20
304.58
  0
VERTEX
  8
MMIC_Label
  10
42.43
  20
301.94
  0
VERTEX
  8
MMIC_Label
  10
42.76
  20
299.3
  0
VERTEX
  8
MMIC_Label
  10
43.09
  20
296.99
  0
VERTEX
  8
MMIC_Label
  10
43.75
  20
294.35
  0
VERTEX
  8
MMIC_Label
  10
44.74
  20
292.37
  0
VERTEX
  8
MMIC_Label
  10
46.06
  20
290.06
  0
VERTEX
  8
MMIC_Label
  10
47.71
  20
288.41
  0
VERTEX
  8
MMIC_Label
  10
49.36
  20
287.09
  0
VERTEX
  8
MMIC_Label
  10
51.67
  20
285.77
  0
VERTEX
  8
MMIC_Label
  10
53.98
  20
285.44
  0
VERTEX
  8
MMIC_Label
  10
58.6
  20
285.44
  0
VERTEX
  8
MMIC_Label
  10
60.58
  20
285.77
  0
VERTEX
  8
MMIC_Label
  10
63.88
  20
287.75
  0
VERTEX
  8
MMIC_Label
  10
64.87
  20
289.4
  0
VERTEX
  8
MMIC_Label
  10
66.19
  20
285.44
  0
VERTEX
  8
MMIC_Label
  10
69.82
  20
285.44
  0
VERTEX
  8
MMIC_Label
  10
69.82
  20
301.94
  0
VERTEX
  8
MMIC_Label
  10
57.28
  20
301.94
  0
VERTEX
  8
MMIC_Label
  10
57.28
  20
296.99
  0
VERTEX
  8
MMIC_Label
  10
63.22
  20
296.99
  0
VERTEX
  8
MMIC_Label
  10
62.89
  20
295.34
  0
VERTEX
  8
MMIC_Label
  10
62.23
  20
293.69
  0
VERTEX
  8
MMIC_Label
  10
61.24
  20
292.37
  0
VERTEX
  8
MMIC_Label
  10
59.92
  20
291.38
  0
VERTEX
  8
MMIC_Label
  10
58.6
  20
290.72
  0
VERTEX
  8
MMIC_Label
  10
56.62
  20
290.39
  0
VERTEX
  8
MMIC_Label
  10
54.97
  20
290.72
  0
VERTEX
  8
MMIC_Label
  10
53.32
  20
291.38
  0
VERTEX
  8
MMIC_Label
  10
52
  20
292.37
  0
VERTEX
  8
MMIC_Label
  10
50.68
  20
294.02
  0
VERTEX
  8
MMIC_Label
  10
50.02
  20
295.67
  0
VERTEX
  8
MMIC_Label
  10
49.36
  20
297.65
  0
VERTEX
  8
MMIC_Label
  10
49.03
  20
299.63
  0
VERTEX
  8
MMIC_Label
  10
49.03
  20
304.25
  0
VERTEX
  8
MMIC_Label
  10
49.36
  20
306.23
  0
VERTEX
  8
MMIC_Label
  10
50.02
  20
308.21
  0
VERTEX
  8
MMIC_Label
  10
50.68
  20
309.86
  0
VERTEX
  8
MMIC_Label
  10
52
  20
311.51
  0
VERTEX
  8
MMIC_Label
  10
53.32
  20
312.5
  0
VERTEX
  8
MMIC_Label
  10
54.97
  20
313.16
  0
VERTEX
  8
MMIC_Label
  10
56.62
  20
313.49
  0
VERTEX
  8
MMIC_Label
  10
58.6
  20
313.16
  0
VERTEX
  8
MMIC_Label
  10
60.25
  20
312.17
  0
VERTEX
  8
MMIC_Label
  10
61.57
  20
311.18
  0
VERTEX
  8
MMIC_Label
  10
62.56
  20
309.53
  0
VERTEX
  8
MMIC_Label
  10
63.22
  20
307.88
  0
SEQEND
  0
POLYLINE
  8
MMIC_Label
  70
1
  66
1
  0
VERTEX
  8
MMIC_Label
  10
1795.3
  20
54.99
  0
VERTEX
  8
MMIC_Label
  10
1793.65
  20
55.32
  0
VERTEX
  8
MMIC_Label
  10
1792.33
  20
55.98
  0
VERTEX
  8
MMIC_Label
  10
1791.34
  20
56.97
  0
VERTEX
  8
MMIC_Label
  10
1801.24
  20
70.83
  0
VERTEX
  8
MMIC_Label
  10
1801.57
  20
68.85
  0
VERTEX
  8
MMIC_Label
  10
1801.9
  20
66.54
  0
VERTEX
  8
MMIC_Label
  10
1801.57
  20
64.23
  0
VERTEX
  8
MMIC_Label
  10
1800.91
  20
60.27
  0
VERTEX
  8
MMIC_Label
  10
1800.25
  20
58.62
  0
VERTEX
  8
MMIC_Label
  10
1799.26
  20
56.97
  0
VERTEX
  8
MMIC_Label
  10
1797.94
  20
55.98
  0
VERTEX
  8
MMIC_Label
  10
1796.62
  20
55.32
  0
SEQEND
  0
POLYLINE
  8
MMIC_Label
  70
1
  66
1
  0
VERTEX
  8
MMIC_Label
  10
1792.66
  20
50.04
  0
VERTEX
  8
MMIC_Label
  10
1790.68
  20
50.37
  0
VERTEX
  8
MMIC_Label
  10
1788.7
  20
51.69
  0
VERTEX
  8
MMIC_Label
  10
1788.04
  20
52.35
  0
VERTEX
  8
MMIC_Label
  10
1786.06
  20
50.04
  0
VERTEX
  8
MMIC_Label
  10
1782.43
  20
53.34
  0
VERTEX
  8
MMIC_Label
  10
1784.74
  20
56.31
  0
VERTEX
  8
MMIC_Label
  10
1784.41
  20
56.97
  0
VERTEX
  8
MMIC_Label
  10
1783.75
  20
58.95
  0
VERTEX
  8
MMIC_Label
  10
1783.09
  20
61.59
  0
VERTEX
  8
MMIC_Label
  10
1782.76
  20
63.9
  0
VERTEX
  8
MMIC_Label
  10
1782.43
  20
66.54
  0
VERTEX
  8
MMIC_Label
  10
1782.76
  20
69.18
  0
VERTEX
  8
MMIC_Label
  10
1783.09
  20
71.49
  0
VERTEX
  8
MMIC_Label
  10
1783.75
  20
74.13
  0
VERTEX
  8
MMIC_Label
  10
1784.41
  20
76.11
  0
VERTEX
  8
MMIC_Label
  10
1785.73
  20
78.42
  0
VERTEX
  8
MMIC_Label
  10
1787.05
  20
80.07
  0
VERTEX
  8
MMIC_Label
  10
1788.7
  20
81.39
  0
VERTEX
  8
MMIC_Label
  10
1790.68
  20
82.71
  0
VERTEX
  8
MMIC_Label
  10
1792.66
  20
83.04
  0
VERTEX
  8
MMIC_Label
  10
1797.61
  20
83.04
  0
VERTEX
  8
MMIC_Label
  10
1799.59
  20
82.71
  0
VERTEX
  8
MMIC_Label
  10
1801.57
  20
81.39
  0
VERTEX
  8
MMIC_Label
  10
1802.56
  20
80.4
  0
VERTEX
  8
MMIC_Label
  10
1804.54
  20
83.04
  0
VERTEX
  8
MMIC_Label
  10
1807.84
  20
80.07
  0
VERTEX
  8
MMIC_Label
  10
1805.53
  20
76.77
  0
VERTEX
  8
MMIC_Label
  10
1806.85
  20
74.13
  0
VERTEX
  8
MMIC_Label
  10
1807.18
  20
71.49
  0
VERTEX
  8
MMIC_Label
  10
1807.84
  20
69.18
  0
VERTEX
  8
MMIC_Label
  10
1807.84
  20
63.9
  0
VERTEX
  8
MMIC_Label
  10
1807.18
  20
61.59
  0
VERTEX
  8
MMIC_Label
  10
1806.85
  20
58.95
  0
VERTEX
  8
MMIC_Label
  10
1805.86
  20
56.97
  0
VERTEX
  8
MMIC_Label
  10
1804.54
  20
54.66
  0
VERTEX
  8
MMIC_Label
  10
1803.22
  20
53.01
  0
VERTEX
  8
MMIC_Label
  10
1801.57
  20
51.69
  0
VERTEX
  8
MMIC_Label
  10
1799.59
  20
50.37
  0
VERTEX
  8
MMIC_Label
  10
1797.61
  20
50.04
  0
SEQEND
  0
POLYLINE
  8
MMIC_Label
  70
1
  66
1
  0
VERTEX
  8
MMIC_Label
  10
1658
  20
2093.84
  0
VERTEX
  8
MMIC_Label
  10
1657.01
  20
2095.82
  0
VERTEX
  8
MMIC_Label
  10
1655.69
  20
2097.8
  0
VERTEX
  8
MMIC_Label
  10
1654.04
  20
2099.12
  0
VERTEX
  8
MMIC_Label
  10
1650.08
  20
2101.1
  0
VERTEX
  8
MMIC_Label
  10
1643.15
  20
2101.1
  0
VERTEX
  8
MMIC_Label
  10
1640.84
  20
2100.77
  0
VERTEX
  8
MMIC_Label
  10
1638.53
  20
2099.45
  0
VERTEX
  8
MMIC_Label
  10
1636.55
  20
2098.13
  0
VERTEX
  8
MMIC_Label
  10
1635.23
  20
2096.48
  0
VERTEX
  8
MMIC_Label
  10
1633.91
  20
2094.17
  0
VERTEX
  8
MMIC_Label
  10
1632.92
  20
2092.19
  0
VERTEX
  8
MMIC_Label
  10
1631.93
  20
2089.55
  0
VERTEX
  8
MMIC_Label
  10
1631.6
  20
2087.24
  0
VERTEX
  8
MMIC_Label
  10
1631.6
  20
2081.96
  0
VERTEX
  8
MMIC_Label
  10
1631.93
  20
2079.65
  0
VERTEX
  8
MMIC_Label
  10
1632.92
  20
2077.01
  0
VERTEX
  8
MMIC_Label
  10
1633.91
  20
2075.03
  0
VERTEX
  8
MMIC_Label
  10
1635.23
  20
2072.72
  0
VERTEX
  8
MMIC_Label
  10
1636.55
  20
2071.07
  0
VERTEX
  8
MMIC_Label
  10
1638.53
  20
2069.75
  0
VERTEX
  8
MMIC_Label
  10
1640.84
  20
2068.43
  0
VERTEX
  8
MMIC_Label
  10
1643.15
  20
2068.1
  0
VERTEX
  8
MMIC_Label
  10
1650.08
  20
2068.1
  0
VERTEX
  8
MMIC_Label
  10
1652.06
  20
2068.76
  0
VERTEX
  8
MMIC_Label
  10
1654.04
  20
2070.08
  0
VERTEX
  8
MMIC_Label
  10
1655.69
  20
2071.4
  0
VERTEX
  8
MMIC_Label
  10
1657.01
  20
2072.72
  0
VERTEX
  8
MMIC_Label
  10
1658.33
  20
2074.7
  0
VERTEX
  8
MMIC_Label
  10
1658.99
  20
2076.68
  0
VERTEX
  8
MMIC_Label
  10
1658.99
  20
2078.99
  0
VERTEX
  8
MMIC_Label
  10
1658.66
  20
2081.3
  0
VERTEX
  8
MMIC_Label
  10
1658
  20
2083.61
  0
VERTEX
  8
MMIC_Label
  10
1655.36
  20
2086.91
  0
VERTEX
  8
MMIC_Label
  10
1651.4
  20
2088.89
  0
VERTEX
  8
MMIC_Label
  10
1649.09
  20
2089.55
  0
VERTEX
  8
MMIC_Label
  10
1647.11
  20
2089.55
  0
VERTEX
  8
MMIC_Label
  10
1644.47
  20
2089.22
  0
VERTEX
  8
MMIC_Label
  10
1642.16
  20
2088.56
  0
VERTEX
  8
MMIC_Label
  10
1640.18
  20
2087.24
  0
VERTEX
  8
MMIC_Label
  10
1638.2
  20
2085.59
  0
VERTEX
  8
MMIC_Label
  10
1638.2
  20
2087.57
  0
VERTEX
  8
MMIC_Label
  10
1638.53
  20
2089.22
  0
VERTEX
  8
MMIC_Label
  10
1639.19
  20
2091.2
  0
VERTEX
  8
MMIC_Label
  10
1641.17
  20
2094.5
  0
VERTEX
  8
MMIC_Label
  10
1642.49
  20
2095.49
  0
VERTEX
  8
MMIC_Label
  10
1644.47
  20
2096.48
  0
VERTEX
  8
MMIC_Label
  10
1646.45
  20
2096.81
  0
VERTEX
  8
MMIC_Label
  10
1648.1
  20
2096.48
  0
VERTEX
  8
MMIC_Label
  10
1650.74
  20
2095.16
  0
VERTEX
  8
MMIC_Label
  10
1652.06
  20
2093.84
  0
SEQEND
  0
POLYLINE
  8
MMIC_Label
  70
1
  66
1
  0
VERTEX
  8
MMIC_Label
  10
1792.66
  20
2421.065
  0
VERTEX
  8
MMIC_Label
  10
1790.68
  20
2421.395
  0
VERTEX
  8
MMIC_Label
  10
1788.7
  20
2422.715
  0
VERTEX
  8
MMIC_Label
  10
1788.04
  20
2423.375
  0
VERTEX
  8
MMIC_Label
  10
1786.06
  20
2421.065
  0
VERTEX
  8
MMIC_Label
  10
1782.43
  20
2424.365
  0
VERTEX
  8
MMIC_Label
  10
1784.74
  20
2427.335
  0
VERTEX
  8
MMIC_Label
  10
1784.41
  20
2427.995
  0
VERTEX
  8
MMIC_Label
  10
1783.75
  20
2429.975
  0
VERTEX
  8
MMIC_Label
  10
1783.09
  20
2432.615
  0
VERTEX
  8
MMIC_Label
  10
1782.76
  20
2434.925
  0
VERTEX
  8
MMIC_Label
  10
1782.43
  20
2437.565
  0
VERTEX
  8
MMIC_Label
  10
1782.76
  20
2440.205
  0
VERTEX
  8
MMIC_Label
  10
1783.09
  20
2442.515
  0
VERTEX
  8
MMIC_Label
  10
1783.75
  20
2445.155
  0
VERTEX
  8
MMIC_Label
  10
1784.41
  20
2447.135
  0
VERTEX
  8
MMIC_Label
  10
1785.73
  20
2449.445
  0
VERTEX
  8
MMIC_Label
  10
1787.05
  20
2451.095
  0
VERTEX
  8
MMIC_Label
  10
1788.7
  20
2452.415
  0
VERTEX
  8
MMIC_Label
  10
1790.68
  20
2453.735
  0
VERTEX
  8
MMIC_Label
  10
1792.66
  20
2454.065
  0
VERTEX
  8
MMIC_Label
  10
1797.61
  20
2454.065
  0
VERTEX
  8
MMIC_Label
  10
1799.59
  20
2453.735
  0
VERTEX
  8
MMIC_Label
  10
1801.57
  20
2452.415
  0
VERTEX
  8
MMIC_Label
  10
1802.56
  20
2451.425
  0
VERTEX
  8
MMIC_Label
  10
1804.54
  20
2454.065
  0
VERTEX
  8
MMIC_Label
  10
1807.84
  20
2451.095
  0
VERTEX
  8
MMIC_Label
  10
1805.53
  20
2447.795
  0
VERTEX
  8
MMIC_Label
  10
1806.85
  20
2445.155
  0
VERTEX
  8
MMIC_Label
  10
1807.18
  20
2442.515
  0
VERTEX
  8
MMIC_Label
  10
1807.84
  20
2440.205
  0
VERTEX
  8
MMIC_Label
  10
1807.84
  20
2434.925
  0
VERTEX
  8
MMIC_Label
  10
1807.18
  20
2432.615
  0
VERTEX
  8
MMIC_Label
  10
1806.85
  20
2429.975
  0
VERTEX
  8
MMIC_Label
  10
1805.86
  20
2427.995
  0
VERTEX
  8
MMIC_Label
  10
1804.54
  20
2425.685
  0
VERTEX
  8
MMIC_Label
  10
1803.22
  20
2424.035
  0
VERTEX
  8
MMIC_Label
  10
1801.57
  20
2422.715
  0
VERTEX
  8
MMIC_Label
  10
1799.59
  20
2421.395
  0
VERTEX
  8
MMIC_Label
  10
1797.61
  20
2421.065
  0
SEQEND
  0
POLYLINE
  8
MMIC_Label
  70
1
  66
1
  0
VERTEX
  8
MMIC_Label
  10
1533.2
  20
2106.1
  0
VERTEX
  8
MMIC_Label
  10
1543.1
  20
2139.1
  0
VERTEX
  8
MMIC_Label
  10
1550.69
  20
2139.1
  0
VERTEX
  8
MMIC_Label
  10
1560.59
  20
2106.1
  0
VERTEX
  8
MMIC_Label
  10
1553.66
  20
2106.1
  0
VERTEX
  8
MMIC_Label
  10
1552.01
  20
2112.7
  0
VERTEX
  8
MMIC_Label
  10
1542.11
  20
2112.7
  0
VERTEX
  8
MMIC_Label
  10
1540.46
  20
2106.1
  0
SEQEND
  0
POLYLINE
  8
MMIC_Label
  70
1
  66
1
  0
VERTEX
  8
MMIC_Label
  10
1668.2
  20
1988.7
  0
VERTEX
  8
MMIC_Label
  10
1643.2
  20
1988.7
  0
VERTEX
  8
MMIC_Label
  10
1643.2
  20
1983.7
  0
VERTEX
  8
MMIC_Label
  10
1668.2
  20
1983.7
  0
SEQEND
  0
POLYLINE
  8
MMIC_Label
  70
1
  66
1
  0
VERTEX
  8
MMIC_Label
  10
1789.03
  20
62.25
  0
VERTEX
  8
MMIC_Label
  10
1788.7
  20
64.23
  0
VERTEX
  8
MMIC_Label
  10
1788.7
  20
68.85
  0
VERTEX
  8
MMIC_Label
  10
1789.03
  20
70.83
  0
VERTEX
  8
MMIC_Label
  10
1789.69
  20
72.81
  0
VERTEX
  8
MMIC_Label
  10
1790.35
  20
74.46
  0
VERTEX
  8
MMIC_Label
  10
1791.34
  20
76.11
  0
VERTEX
  8
MMIC_Label
  10
1792.33
  20
77.1
  0
VERTEX
  8
MMIC_Label
  10
1793.65
  20
77.76
  0
VERTEX
  8
MMIC_Label
  10
1795.3
  20
78.09
  0
VERTEX
  8
MMIC_Label
  10
1796.62
  20
77.76
  0
VERTEX
  8
MMIC_Label
  10
1797.94
  20
77.1
  0
VERTEX
  8
MMIC_Label
  10
1799.26
  20
76.11
  0
SEQEND
  0
POLYLINE
  8
MMIC_Label
  70
1
  66
1
  0
VERTEX
  8
MMIC_Label
  10
1572.6
  20
2080.31
  0
VERTEX
  8
MMIC_Label
  10
1572.27
  20
2082.29
  0
VERTEX
  8
MMIC_Label
  10
1572.27
  20
2086.91
  0
VERTEX
  8
MMIC_Label
  10
1572.6
  20
2088.89
  0
VERTEX
  8
MMIC_Label
  10
1573.26
  20
2090.87
  0
VERTEX
  8
MMIC_Label
  10
1573.92
  20
2092.52
  0
VERTEX
  8
MMIC_Label
  10
1574.91
  20
2094.17
  0
VERTEX
  8
MMIC_Label
  10
1575.9
  20
2095.16
  0
VERTEX
  8
MMIC_Label
  10
1577.22
  20
2095.82
  0
VERTEX
  8
MMIC_Label
  10
1578.87
  20
2096.15
  0
VERTEX
  8
MMIC_Label
  10
1580.19
  20
2095.82
  0
VERTEX
  8
MMIC_Label
  10
1581.51
  20
2095.16
  0
VERTEX
  8
MMIC_Label
  10
1582.83
  20
2094.17
  0
SEQEND
  0
POLYLINE
  8
MMIC_Label
  70
1
  66
1
  0
VERTEX
  8
MMIC_Label
  10
1653.05
  20
2078.66
  0
VERTEX
  8
MMIC_Label
  10
1652.72
  20
2076.68
  0
VERTEX
  8
MMIC_Label
  10
1652.06
  20
2075.36
  0
VERTEX
  8
MMIC_Label
  10
1651.07
  20
2074.04
  0
VERTEX
  8
MMIC_Label
  10
1650.08
  20
2073.38
  0
VERTEX
  8
MMIC_Label
  10
1648.43
  20
2072.72
  0
VERTEX
  8
MMIC_Label
  10
1647.11
  20
2072.39
  0
VERTEX
  8
MMIC_Label
  10
1645.46
  20
2072.39
  0
VERTEX
  8
MMIC_Label
  10
1643.81
  20
2072.72
  0
VERTEX
  8
MMIC_Label
  10
1641.17
  20
2074.04
  0
VERTEX
  8
MMIC_Label
  10
1640.18
  20
2075.36
  0
VERTEX
  8
MMIC_Label
  10
1639.52
  20
2076.68
  0
VERTEX
  8
MMIC_Label
  10
1639.19
  20
2078.66
  0
VERTEX
  8
MMIC_Label
  10
1639.52
  20
2080.31
  0
VERTEX
  8
MMIC_Label
  10
1640.18
  20
2081.63
  0
VERTEX
  8
MMIC_Label
  10
1641.17
  20
2082.95
  0
VERTEX
  8
MMIC_Label
  10
1643.81
  20
2084.27
  0
VERTEX
  8
MMIC_Label
  10
1645.46
  20
2084.6
  0
VERTEX
  8
MMIC_Label
  10
1647.11
  20
2084.6
  0
VERTEX
  8
MMIC_Label
  10
1648.43
  20
2084.27
  0
VERTEX
  8
MMIC_Label
  10
1650.08
  20
2083.61
  0
VERTEX
  8
MMIC_Label
  10
1651.07
  20
2082.95
  0
VERTEX
  8
MMIC_Label
  10
1652.06
  20
2081.63
  0
VERTEX
  8
MMIC_Label
  10
1652.72
  20
2080.31
  0
SEQEND
  0
POLYLINE
  8
MMIC_Label
  70
1
  66
1
  0
VERTEX
  8
MMIC_Label
  10
179.04
  20
2014.17
  0
VERTEX
  8
MMIC_Label
  10
179.04
  20
2007.57
  0
VERTEX
  8
MMIC_Label
  10
156.93
  20
2007.57
  0
VERTEX
  8
MMIC_Label
  10
155.28
  20
2007.24
  0
VERTEX
  8
MMIC_Label
  10
153.96
  20
2006.58
  0
VERTEX
  8
MMIC_Label
  10
152.64
  20
2005.59
  0
VERTEX
  8
MMIC_Label
  10
151.32
  20
2002.95
  0
VERTEX
  8
MMIC_Label
  10
150.99
  20
2001.3
  0
VERTEX
  8
MMIC_Label
  10
150.99
  20
1999.65
  0
VERTEX
  8
MMIC_Label
  10
151.32
  20
1998
  0
VERTEX
  8
MMIC_Label
  10
151.98
  20
1996.35
  0
VERTEX
  8
MMIC_Label
  10
152.64
  20
1995.36
  0
VERTEX
  8
MMIC_Label
  10
153.96
  20
1994.04
  0
VERTEX
  8
MMIC_Label
  10
155.28
  20
1993.38
  0
VERTEX
  8
MMIC_Label
  10
179.04
  20
1993.38
  0
VERTEX
  8
MMIC_Label
  10
179.04
  20
1986.78
  0
VERTEX
  8
MMIC_Label
  10
153.3
  20
1986.78
  0
VERTEX
  8
MMIC_Label
  10
150
  20
1988.76
  0
VERTEX
  8
MMIC_Label
  10
148.68
  20
1990.08
  0
VERTEX
  8
MMIC_Label
  10
147.69
  20
1991.73
  0
VERTEX
  8
MMIC_Label
  10
146.7
  20
1993.71
  0
VERTEX
  8
MMIC_Label
  10
146.04
  20
1996.02
  0
VERTEX
  8
MMIC_Label
  10
146.04
  20
2004.93
  0
VERTEX
  8
MMIC_Label
  10
146.7
  20
2006.91
  0
VERTEX
  8
MMIC_Label
  10
147.69
  20
2008.89
  0
VERTEX
  8
MMIC_Label
  10
148.68
  20
2010.54
  0
VERTEX
  8
MMIC_Label
  10
150
  20
2012.19
  0
VERTEX
  8
MMIC_Label
  10
151.65
  20
2013.18
  0
VERTEX
  8
MMIC_Label
  10
153.3
  20
2013.84
  0
VERTEX
  8
MMIC_Label
  10
155.28
  20
2014.17
  0
SEQEND
  0
POLYLINE
  8
MMIC_Label
  70
1
  66
1
  0
VERTEX
  8
MMIC_Label
  10
1543.1
  20
2117.65
  0
VERTEX
  8
MMIC_Label
  10
1547.06
  20
2131.84
  0
VERTEX
  8
MMIC_Label
  10
1550.69
  20
2117.65
  0
SEQEND
  0
POLYLINE
  8
MMIC_Label
  70
1
  66
1
  0
VERTEX
  8
MMIC_Label
  10
1871.684
  20
2016.127
  0
VERTEX
  8
MMIC_Label
  10
1871.687
  20
2016.126
  0
VERTEX
  8
MMIC_Label
  10
1871.691
  20
2016.125
  0
VERTEX
  8
MMIC_Label
  10
1871.694
  20
2016.123
  0
VERTEX
  8
MMIC_Label
  10
1871.698
  20
2016.122
  0
VERTEX
  8
MMIC_Label
  10
1871.702
  20
2016.119
  0
VERTEX
  8
MMIC_Label
  10
1871.704
  20
2016.116
  0
VERTEX
  8
MMIC_Label
  10
1871.707
  20
2016.114
  0
VERTEX
  8
MMIC_Label
  10
1871.71
  20
2016.11
  0
VERTEX
  8
MMIC_Label
  10
1871.711
  20
2016.106
  0
VERTEX
  8
MMIC_Label
  10
1871.713
  20
2016.103
  0
VERTEX
  8
MMIC_Label
  10
1871.714
  20
2016.099
  0
VERTEX
  8
MMIC_Label
  10
1871.715
  20
2016.096
  0
VERTEX
  8
MMIC_Label
  10
1871.716
  20
2016.092
  0
VERTEX
  8
MMIC_Label
  10
1871.716
  20
2016.084
  0
VERTEX
  8
MMIC_Label
  10
1871.717
  20
2016.08
  0
VERTEX
  8
MMIC_Label
  10
1871.718
  20
2016.077
  0
VERTEX
  8
MMIC_Label
  10
1871.719
  20
2016.073
  0
VERTEX
  8
MMIC_Label
  10
1871.721
  20
2016.07
  0
VERTEX
  8
MMIC_Label
  10
1871.722
  20
2016.066
  0
VERTEX
  8
MMIC_Label
  10
1871.725
  20
2016.062
  0
VERTEX
  8
MMIC_Label
  10
1871.728
  20
2016.06
  0
VERTEX
  8
MMIC_Label
  10
1871.73
  20
2016.057
  0
VERTEX
  8
MMIC_Label
  10
1871.734
  20
2016.054
  0
VERTEX
  8
MMIC_Label
  10
1871.738
  20
2016.053
  0
VERTEX
  8
MMIC_Label
  10
1871.741
  20
2016.051
  0
VERTEX
  8
MMIC_Label
  10
1871.745
  20
2016.05
  0
VERTEX
  8
MMIC_Label
  10
1871.748
  20
2016.049
  0
VERTEX
  8
MMIC_Label
  10
1871.752
  20
2016.048
  0
VERTEX
  8
MMIC_Label
  10
1871.76
  20
2016.048
  0
VERTEX
  8
MMIC_Label
  10
1871.764
  20
2016.047
  0
VERTEX
  8
MMIC_Label
  10
1871.767
  20
2016.046
  0
VERTEX
  8
MMIC_Label
  10
1871.771
  20
2016.045
  0
VERTEX
  8
MMIC_Label
  10
1871.774
  20
2016.043
  0
VERTEX
  8
MMIC_Label
  10
1871.778
  20
2016.042
  0
VERTEX
  8
MMIC_Label
  10
1871.782
  20
2016.039
  0
VERTEX
  8
MMIC_Label
  10
1871.784
  20
2016.036
  0
VERTEX
  8
MMIC_Label
  10
1871.787
  20
2016.034
  0
VERTEX
  8
MMIC_Label
  10
1871.79
  20
2016.03
  0
VERTEX
  8
MMIC_Label
  10
1871.791
  20
2016.026
  0
VERTEX
  8
MMIC_Label
  10
1871.793
  20
2016.023
  0
VERTEX
  8
MMIC_Label
  10
1871.794
  20
2016.019
  0
VERTEX
  8
MMIC_Label
  10
1871.795
  20
2016.016
  0
VERTEX
  8
MMIC_Label
  10
1871.796
  20
2016.012
  0
VERTEX
  8
MMIC_Label
  10
1871.796
  20
2015.907
  0
VERTEX
  8
MMIC_Label
  10
1870.755
  20
2009.602
  0
VERTEX
  8
MMIC_Label
  10
1870.717
  20
2009.426
  0
VERTEX
  8
MMIC_Label
  10
1870.661
  20
2009.254
  0
VERTEX
  8
MMIC_Label
  10
1870.588
  20
2009.089
  0
VERTEX
  8
MMIC_Label
  10
1870.499
  20
2008.931
  0
VERTEX
  8
MMIC_Label
  10
1870.394
  20
2008.784
  0
VERTEX
  8
MMIC_Label
  10
1870.275
  20
2008.647
  0
VERTEX
  8
MMIC_Label
  10
1870.144
  20
2008.523
  0
VERTEX
  8
MMIC_Label
  10
1870
  20
2008.414
  0
VERTEX
  8
MMIC_Label
  10
1869.846
  20
2008.318
  0
VERTEX
  8
MMIC_Label
  10
1869.683
  20
2008.239
  0
VERTEX
  8
MMIC_Label
  10
1869.514
  20
2008.178
  0
VERTEX
  8
MMIC_Label
  10
1869.338
  20
2008.132
  0
VERTEX
  8
MMIC_Label
  10
1869.16
  20
2008.105
  0
VERTEX
  8
MMIC_Label
  10
1868.979
  20
2008.096
  0
VERTEX
  8
MMIC_Label
  10
1849.578
  20
2008.096
  0
VERTEX
  8
MMIC_Label
  10
1848.538
  20
2008.176
  0
VERTEX
  8
MMIC_Label
  10
1847.814
  20
2008.176
  0
VERTEX
  8
MMIC_Label
  10
1846.23
  20
2008.506
  0
VERTEX
  8
MMIC_Label
  10
1845.888
  20
2008.577
  0
VERTEX
  8
MMIC_Label
  10
1844.844
  20
2008.818
  0
VERTEX
  8
MMIC_Label
  10
1843.398
  20
2009.301
  0
VERTEX
  8
MMIC_Label
  10
1841.31
  20
2010.346
  0
VERTEX
  8
MMIC_Label
  10
1839.54
  20
2011.793
  0
VERTEX
  8
MMIC_Label
  10
1838.896
  20
2012.598
  0
VERTEX
  8
MMIC_Label
  10
1838.094
  20
2013.642
  0
VERTEX
  8
MMIC_Label
  10
1837.288
  20
2015.171
  0
VERTEX
  8
MMIC_Label
  10
1836.965
  20
2016.462
  0
VERTEX
  8
MMIC_Label
  10
1836.884
  20
2017.266
  0
VERTEX
  8
MMIC_Label
  10
1836.724
  20
2018.307
  0
VERTEX
  8
MMIC_Label
  10
1836.724
  20
2019.516
  0
VERTEX
  8
MMIC_Label
  10
1836.885
  20
2020.959
  0
VERTEX
  8
MMIC_Label
  10
1837.125
  20
2022.245
  0
VERTEX
  8
MMIC_Label
  10
1837.448
  20
2023.29
  0
VERTEX
  8
MMIC_Label
  10
1837.93
  20
2024.415
  0
VERTEX
  8
MMIC_Label
  10
1838.33
  20
2025.219
  0
VERTEX
  8
MMIC_Label
  10
1839.054
  20
2026.424
  0
VERTEX
  8
MMIC_Label
  10
1840.177
  20
2027.87
  0
VERTEX
  8
MMIC_Label
  10
1841.382
  20
2029.075
  0
VERTEX
  8
MMIC_Label
  10
1842.988
  20
2030.278
  0
VERTEX
  8
MMIC_Label
  10
1844.511
  20
2031.241
  0
VERTEX
  8
MMIC_Label
  10
1846.037
  20
2032.123
  0
VERTEX
  8
MMIC_Label
  10
1846.23
  20
2032.193
  0
VERTEX
  8
MMIC_Label
  10
1848.043
  20
2032.846
  0
VERTEX
  8
MMIC_Label
  10
1849.967
  20
2033.327
  0
VERTEX
  8
MMIC_Label
  10
1851.653
  20
2033.728
  0
VERTEX
  8
MMIC_Label
  10
1853.418
  20
2033.808
  0
VERTEX
  8
MMIC_Label
  10
1856.539
  20
2033.888
  0
VERTEX
  8
MMIC_Label
  10
1881.181
  20
2033.966
  0
VERTEX
  8
MMIC_Label
  10
1881.363
  20
2033.975
  0
VERTEX
  8
MMIC_Label
  10
1881.544
  20
2034.004
  0
VERTEX
  8
MMIC_Label
  10
1881.721
  20
2034.05
  0
VERTEX
  8
MMIC_Label
  10
1881.892
  20
2034.114
  0
VERTEX
  8
MMIC_Label
  10
1882.056
  20
2034.196
  0
VERTEX
  8
MMIC_Label
  10
1882.211
  20
2034.294
  0
VERTEX
  8
MMIC_Label
  10
1882.355
  20
2034.406
  0
VERTEX
  8
MMIC_Label
  10
1882.487
  20
2034.533
  0
VERTEX
  8
MMIC_Label
  10
1891.481
  20
2044.103
  0
VERTEX
  8
MMIC_Label
  10
1891.594
  20
2044.236
  0
VERTEX
  8
MMIC_Label
  10
1891.694
  20
2044.379
  0
VERTEX
  8
MMIC_Label
  10
1891.778
  20
2044.531
  0
VERTEX
  8
MMIC_Label
  10
1891.849
  20
2044.69
  0
VERTEX
  8
MMIC_Label
  10
1891.904
  20
2044.856
  0
VERTEX
  8
MMIC_Label
  10
1891.942
  20
2045.026
  0
VERTEX
  8
MMIC_Label
  10
1891.963
  20
2045.199
  0
VERTEX
  8
MMIC_Label
  10
1891.969
  20
2045.374
  0
VERTEX
  8
MMIC_Label
  10
1891.956
  20
2045.547
  0
VERTEX
  8
MMIC_Label
  10
1891.927
  20
2045.719
  0
VERTEX
  8
MMIC_Label
  10
1891.882
  20
2045.887
  0
VERTEX
  8
MMIC_Label
  10
1891.821
  20
2046.05
  0
VERTEX
  8
MMIC_Label
  10
1891.744
  20
2046.207
  0
VERTEX
  8
MMIC_Label
  10
1891.652
  20
2046.355
  0
VERTEX
  8
MMIC_Label
  10
1891.547
  20
2046.494
  0
VERTEX
  8
MMIC_Label
  10
1891.428
  20
2046.622
  0
VERTEX
  8
MMIC_Label
  10
1891.298
  20
2046.738
  0
VERTEX
  8
MMIC_Label
  10
1891.157
  20
2046.84
  0
VERTEX
  8
MMIC_Label
  10
1891.007
  20
2046.929
  0
VERTEX
  8
MMIC_Label
  10
1890.849
  20
2047.002
  0
VERTEX
  8
MMIC_Label
  10
1890.685
  20
2047.061
  0
VERTEX
  8
MMIC_Label
  10
1890.515
  20
2047.102
  0
VERTEX
  8
MMIC_Label
  10
1890.343
  20
2047.127
  0
VERTEX
  8
MMIC_Label
  10
1890.169
  20
2047.136
  0
VERTEX
  8
MMIC_Label
  10
1853.902
  20
2047.136
  0
VERTEX
  8
MMIC_Label
  10
1852.866
  20
2047.056
  0
VERTEX
  8
MMIC_Label
  10
1851.346
  20
2046.896
  0
VERTEX
  8
MMIC_Label
  10
1849.749
  20
2046.657
  0
VERTEX
  8
MMIC_Label
  10
1848.71
  20
2046.497
  0
VERTEX
  8
MMIC_Label
  10
1846.23
  20
2045.96
  0
VERTEX
  8
MMIC_Label
  10
1845.755
  20
2045.858
  0
VERTEX
  8
MMIC_Label
  10
1842.878
  20
2044.98
  0
VERTEX
  8
MMIC_Label
  10
1840.162
  20
2043.941
  0
VERTEX
  8
MMIC_Label
  10
1837.524
  20
2042.822
  0
VERTEX
  8
MMIC_Label
  10
1835.049
  20
2041.463
  0
VERTEX
  8
MMIC_Label
  10
1832.813
  20
2040.026
  0
VERTEX
  8
MMIC_Label
  10
1830.735
  20
2038.429
  0
VERTEX
  8
MMIC_Label
  10
1828.74
  20
2036.593
  0
VERTEX
  8
MMIC_Label
  10
1827.223
  20
2034.837
  0
VERTEX
  8
MMIC_Label
  10
1825.785
  20
2033.078
  0
VERTEX
  8
MMIC_Label
  10
1824.506
  20
2031.163
  0
VERTEX
  8
MMIC_Label
  10
1823.39
  20
2029.246
  0
VERTEX
  8
MMIC_Label
  10
1822.511
  20
2027.25
  0
VERTEX
  8
MMIC_Label
  10
1821.794
  20
2025.415
  0
VERTEX
  8
MMIC_Label
  10
1821.315
  20
2023.421
  0
VERTEX
  8
MMIC_Label
  10
1820.916
  20
2021.187
  0
VERTEX
  8
MMIC_Label
  10
1820.916
  20
2019.831
  0
VERTEX
  8
MMIC_Label
  10
1820.836
  20
2018.151
  0
VERTEX
  8
MMIC_Label
  10
1820.836
  20
2016.474
  0
VERTEX
  8
MMIC_Label
  10
1820.916
  20
2015.278
  0
VERTEX
  8
MMIC_Label
  10
1821.315
  20
2012.963
  0
VERTEX
  8
MMIC_Label
  10
1821.634
  20
2011.688
  0
VERTEX
  8
MMIC_Label
  10
1822.272
  20
2009.774
  0
VERTEX
  8
MMIC_Label
  10
1822.91
  20
2008.418
  0
VERTEX
  8
MMIC_Label
  10
1823.869
  20
2006.661
  0
VERTEX
  8
MMIC_Label
  10
1824.745
  20
2005.385
  0
VERTEX
  8
MMIC_Label
  10
1826.103
  20
2003.627
  0
VERTEX
  8
MMIC_Label
  10
1827.059
  20
2002.592
  0
VERTEX
  8
MMIC_Label
  10
1828.735
  20
2001.076
  0
VERTEX
  8
MMIC_Label
  10
1830.492
  20
1999.798
  0
VERTEX
  8
MMIC_Label
  10
1832.648
  20
1998.521
  0
VERTEX
  8
MMIC_Label
  10
1834.403
  20
1997.563
  0
VERTEX
  8
MMIC_Label
  10
1837.038
  20
1996.604
  0
VERTEX
  8
MMIC_Label
  10
1838.875
  20
1996.046
  0
VERTEX
  8
MMIC_Label
  10
1842.786
  20
1995.168
  0
VERTEX
  8
MMIC_Label
  10
1844.062
  20
1995.168
  0
VERTEX
  8
MMIC_Label
  10
1845.262
  20
1995.088
  0
VERTEX
  8
MMIC_Label
  10
1845.341
  20
1995.088
  0
VERTEX
  8
MMIC_Label
  10
1846.23
  20
1995.065
  0
VERTEX
  8
MMIC_Label
  10
1848.381
  20
1995.008
  0
VERTEX
  8
MMIC_Label
  10
1867.96
  20
1994.964
  0
VERTEX
  8
MMIC_Label
  10
1882.496
  20
1994.931
  0
VERTEX
  8
MMIC_Label
  10
1882.676
  20
1994.94
  0
VERTEX
  8
MMIC_Label
  10
1882.854
  20
1994.966
  0
VERTEX
  8
MMIC_Label
  10
1883.029
  20
1995.01
  0
VERTEX
  8
MMIC_Label
  10
1883.198
  20
1995.072
  0
VERTEX
  8
MMIC_Label
  10
1883.36
  20
1995.15
  0
VERTEX
  8
MMIC_Label
  10
1883.514
  20
1995.244
  0
VERTEX
  8
MMIC_Label
  10
1883.658
  20
1995.353
  0
VERTEX
  8
MMIC_Label
  10
1883.79
  20
1995.475
  0
VERTEX
  8
MMIC_Label
  10
1883.908
  20
1995.61
  0
VERTEX
  8
MMIC_Label
  10
1884.014
  20
1995.756
  0
VERTEX
  8
MMIC_Label
  10
1884.103
  20
1995.912
  0
VERTEX
  8
MMIC_Label
  10
1884.177
  20
1996.077
  0
VERTEX
  8
MMIC_Label
  10
1884.234
  20
1996.247
  0
VERTEX
  8
MMIC_Label
  10
1884.274
  20
1996.423
  0
VERTEX
  8
MMIC_Label
  10
1889.306
  20
2025.347
  0
VERTEX
  8
MMIC_Label
  10
1889.328
  20
2025.52
  0
VERTEX
  8
MMIC_Label
  10
1889.333
  20
2025.694
  0
VERTEX
  8
MMIC_Label
  10
1889.321
  20
2025.868
  0
VERTEX
  8
MMIC_Label
  10
1889.292
  20
2026.04
  0
VERTEX
  8
MMIC_Label
  10
1889.246
  20
2026.208
  0
VERTEX
  8
MMIC_Label
  10
1889.185
  20
2026.371
  0
VERTEX
  8
MMIC_Label
  10
1889.108
  20
2026.528
  0
VERTEX
  8
MMIC_Label
  10
1889.017
  20
2026.676
  0
VERTEX
  8
MMIC_Label
  10
1888.911
  20
2026.814
  0
VERTEX
  8
MMIC_Label
  10
1888.793
  20
2026.942
  0
VERTEX
  8
MMIC_Label
  10
1888.662
  20
2027.058
  0
VERTEX
  8
MMIC_Label
  10
1888.522
  20
2027.161
  0
VERTEX
  8
MMIC_Label
  10
1888.371
  20
2027.249
  0
VERTEX
  8
MMIC_Label
  10
1888.214
  20
2027.322
  0
VERTEX
  8
MMIC_Label
  10
1888.049
  20
2027.381
  0
VERTEX
  8
MMIC_Label
  10
1887.88
  20
2027.422
  0
VERTEX
  8
MMIC_Label
  10
1887.707
  20
2027.447
  0
VERTEX
  8
MMIC_Label
  10
1887.534
  20
2027.456
  0
VERTEX
  8
MMIC_Label
  10
1856.402
  20
2027.456
  0
VERTEX
  8
MMIC_Label
  10
1848.344
  20
2019.134
  0
VERTEX
  8
MMIC_Label
  10
1848.23
  20
2018.995
  0
VERTEX
  8
MMIC_Label
  10
1848.13
  20
2018.845
  0
VERTEX
  8
MMIC_Label
  10
1848.046
  20
2018.685
  0
VERTEX
  8
MMIC_Label
  10
1847.978
  20
2018.518
  0
VERTEX
  8
MMIC_Label
  10
1847.928
  20
2018.345
  0
VERTEX
  8
MMIC_Label
  10
1847.895
  20
2018.167
  0
VERTEX
  8
MMIC_Label
  10
1847.88
  20
2017.987
  0
VERTEX
  8
MMIC_Label
  10
1847.883
  20
2017.807
  0
VERTEX
  8
MMIC_Label
  10
1847.905
  20
2017.628
  0
VERTEX
  8
MMIC_Label
  10
1847.943
  20
2017.452
  0
VERTEX
  8
MMIC_Label
  10
1848
  20
2017.281
  0
VERTEX
  8
MMIC_Label
  10
1848.073
  20
2017.116
  0
VERTEX
  8
MMIC_Label
  10
1848.162
  20
2016.959
  0
VERTEX
  8
MMIC_Label
  10
1848.267
  20
2016.812
  0
VERTEX
  8
MMIC_Label
  10
1848.386
  20
2016.677
  0
VERTEX
  8
MMIC_Label
  10
1848.518
  20
2016.554
  0
VERTEX
  8
MMIC_Label
  10
1848.661
  20
2016.444
  0
VERTEX
  8
MMIC_Label
  10
1848.814
  20
2016.35
  0
VERTEX
  8
MMIC_Label
  10
1848.977
  20
2016.27
  0
VERTEX
  8
MMIC_Label
  10
1849.146
  20
2016.209
  0
VERTEX
  8
MMIC_Label
  10
1849.321
  20
2016.164
  0
VERTEX
  8
MMIC_Label
  10
1849.499
  20
2016.137
  0
VERTEX
  8
MMIC_Label
  10
1849.679
  20
2016.128
  0
VERTEX
  8
MMIC_Label
  10
1871.68
  20
2016.128
  0
SEQEND
  0
POLYLINE
  8
MMIC_Label
  70
1
  66
1
  0
VERTEX
  8
MMIC_Label
  10
1653.05
  20
2078.66
  0
VERTEX
  8
MMIC_Label
  10
1652.72
  20
2076.68
  0
VERTEX
  8
MMIC_Label
  10
1652.06
  20
2075.36
  0
VERTEX
  8
MMIC_Label
  10
1651.07
  20
2074.04
  0
VERTEX
  8
MMIC_Label
  10
1650.08
  20
2073.38
  0
VERTEX
  8
MMIC_Label
  10
1648.43
  20
2072.72
  0
VERTEX
  8
MMIC_Label
  10
1647.11
  20
2072.39
  0
VERTEX
  8
MMIC_Label
  10
1645.46
  20
2072.39
  0
VERTEX
  8
MMIC_Label
  10
1643.81
  20
2072.72
  0
VERTEX
  8
MMIC_Label
  10
1641.17
  20
2074.04
  0
VERTEX
  8
MMIC_Label
  10
1640.18
  20
2075.36
  0
VERTEX
  8
MMIC_Label
  10
1639.52
  20
2076.68
  0
VERTEX
  8
MMIC_Label
  10
1639.19
  20
2078.66
  0
VERTEX
  8
MMIC_Label
  10
1639.52
  20
2080.31
  0
VERTEX
  8
MMIC_Label
  10
1640.18
  20
2081.63
  0
VERTEX
  8
MMIC_Label
  10
1641.17
  20
2082.95
  0
VERTEX
  8
MMIC_Label
  10
1643.81
  20
2084.27
  0
VERTEX
  8
MMIC_Label
  10
1645.46
  20
2084.6
  0
VERTEX
  8
MMIC_Label
  10
1647.11
  20
2084.6
  0
VERTEX
  8
MMIC_Label
  10
1648.43
  20
2084.27
  0
VERTEX
  8
MMIC_Label
  10
1650.08
  20
2083.61
  0
VERTEX
  8
MMIC_Label
  10
1651.07
  20
2082.95
  0
VERTEX
  8
MMIC_Label
  10
1652.06
  20
2081.63
  0
VERTEX
  8
MMIC_Label
  10
1652.72
  20
2080.31
  0
SEQEND
  0
POLYLINE
  8
MMIC_Label
  70
1
  66
1
  0
VERTEX
  8
MMIC_Label
  10
1648.1
  20
2106.1
  0
VERTEX
  8
MMIC_Label
  10
1648.1
  20
2113.69
  0
VERTEX
  8
MMIC_Label
  10
1631.6
  20
2113.69
  0
VERTEX
  8
MMIC_Label
  10
1631.6
  20
2118.31
  0
VERTEX
  8
MMIC_Label
  10
1647.11
  20
2139.1
  0
VERTEX
  8
MMIC_Label
  10
1654.04
  20
2139.1
  0
VERTEX
  8
MMIC_Label
  10
1654.04
  20
2118.64
  0
VERTEX
  8
MMIC_Label
  10
1658.99
  20
2118.64
  0
VERTEX
  8
MMIC_Label
  10
1658.99
  20
2113.69
  0
VERTEX
  8
MMIC_Label
  10
1654.04
  20
2113.69
  0
VERTEX
  8
MMIC_Label
  10
1654.04
  20
2106.1
  0
SEQEND
  0
POLYLINE
  8
MMIC_Label
  70
1
  66
1
  0
VERTEX
  8
MMIC_Label
  10
1578.87
  20
2073.05
  0
VERTEX
  8
MMIC_Label
  10
1577.22
  20
2073.38
  0
VERTEX
  8
MMIC_Label
  10
1575.9
  20
2074.04
  0
VERTEX
  8
MMIC_Label
  10
1574.91
  20
2075.03
  0
VERTEX
  8
MMIC_Label
  10
1584.81
  20
2088.89
  0
VERTEX
  8
MMIC_Label
  10
1585.14
  20
2086.91
  0
VERTEX
  8
MMIC_Label
  10
1585.47
  20
2084.6
  0
VERTEX
  8
MMIC_Label
  10
1585.14
  20
2082.29
  0
VERTEX
  8
MMIC_Label
  10
1584.48
  20
2078.33
  0
VERTEX
  8
MMIC_Label
  10
1583.82
  20
2076.68
  0
VERTEX
  8
MMIC_Label
  10
1582.83
  20
2075.03
  0
VERTEX
  8
MMIC_Label
  10
1581.51
  20
2074.04
  0
VERTEX
  8
MMIC_Label
  10
1580.19
  20
2073.38
  0
SEQEND
  0
POLYLINE
  8
MMIC_Label
  70
1
  66
1
  0
VERTEX
  8
MMIC_Label
  10
1795.3
  20
54.99
  0
VERTEX
  8
MMIC_Label
  10
1793.65
  20
55.32
  0
VERTEX
  8
MMIC_Label
  10
1792.33
  20
55.98
  0
VERTEX
  8
MMIC_Label
  10
1791.34
  20
56.97
  0
VERTEX
  8
MMIC_Label
  10
1801.24
  20
70.83
  0
VERTEX
  8
MMIC_Label
  10
1801.57
  20
68.85
  0
VERTEX
  8
MMIC_Label
  10
1801.9
  20
66.54
  0
VERTEX
  8
MMIC_Label
  10
1801.57
  20
64.23
  0
VERTEX
  8
MMIC_Label
  10
1800.91
  20
60.27
  0
VERTEX
  8
MMIC_Label
  10
1800.25
  20
58.62
  0
VERTEX
  8
MMIC_Label
  10
1799.26
  20
56.97
  0
VERTEX
  8
MMIC_Label
  10
1797.94
  20
55.98
  0
VERTEX
  8
MMIC_Label
  10
1796.62
  20
55.32
  0
SEQEND
  0
POLYLINE
  8
MMIC_Label
  70
1
  66
1
  0
VERTEX
  8
MMIC_Label
  10
1658
  20
2093.84
  0
VERTEX
  8
MMIC_Label
  10
1657.01
  20
2095.82
  0
VERTEX
  8
MMIC_Label
  10
1655.69
  20
2097.8
  0
VERTEX
  8
MMIC_Label
  10
1654.04
  20
2099.12
  0
VERTEX
  8
MMIC_Label
  10
1650.08
  20
2101.1
  0
VERTEX
  8
MMIC_Label
  10
1643.15
  20
2101.1
  0
VERTEX
  8
MMIC_Label
  10
1640.84
  20
2100.77
  0
VERTEX
  8
MMIC_Label
  10
1638.53
  20
2099.45
  0
VERTEX
  8
MMIC_Label
  10
1636.55
  20
2098.13
  0
VERTEX
  8
MMIC_Label
  10
1635.23
  20
2096.48
  0
VERTEX
  8
MMIC_Label
  10
1633.91
  20
2094.17
  0
VERTEX
  8
MMIC_Label
  10
1632.92
  20
2092.19
  0
VERTEX
  8
MMIC_Label
  10
1631.93
  20
2089.55
  0
VERTEX
  8
MMIC_Label
  10
1631.6
  20
2087.24
  0
VERTEX
  8
MMIC_Label
  10
1631.6
  20
2081.96
  0
VERTEX
  8
MMIC_Label
  10
1631.93
  20
2079.65
  0
VERTEX
  8
MMIC_Label
  10
1632.92
  20
2077.01
  0
VERTEX
  8
MMIC_Label
  10
1633.91
  20
2075.03
  0
VERTEX
  8
MMIC_Label
  10
1635.23
  20
2072.72
  0
VERTEX
  8
MMIC_Label
  10
1636.55
  20
2071.07
  0
VERTEX
  8
MMIC_Label
  10
1638.53
  20
2069.75
  0
VERTEX
  8
MMIC_Label
  10
1640.84
  20
2068.43
  0
VERTEX
  8
MMIC_Label
  10
1643.15
  20
2068.1
  0
VERTEX
  8
MMIC_Label
  10
1650.08
  20
2068.1
  0
VERTEX
  8
MMIC_Label
  10
1652.06
  20
2068.76
  0
VERTEX
  8
MMIC_Label
  10
1654.04
  20
2070.08
  0
VERTEX
  8
MMIC_Label
  10
1655.69
  20
2071.4
  0
VERTEX
  8
MMIC_Label
  10
1657.01
  20
2072.72
  0
VERTEX
  8
MMIC_Label
  10
1658.33
  20
2074.7
  0
VERTEX
  8
MMIC_Label
  10
1658.99
  20
2076.68
  0
VERTEX
  8
MMIC_Label
  10
1658.99
  20
2078.99
  0
VERTEX
  8
MMIC_Label
  10
1658.66
  20
2081.3
  0
VERTEX
  8
MMIC_Label
  10
1658
  20
2083.61
  0
VERTEX
  8
MMIC_Label
  10
1655.36
  20
2086.91
  0
VERTEX
  8
MMIC_Label
  10
1651.4
  20
2088.89
  0
VERTEX
  8
MMIC_Label
  10
1649.09
  20
2089.55
  0
VERTEX
  8
MMIC_Label
  10
1647.11
  20
2089.55
  0
VERTEX
  8
MMIC_Label
  10
1644.47
  20
2089.22
  0
VERTEX
  8
MMIC_Label
  10
1642.16
  20
2088.56
  0
VERTEX
  8
MMIC_Label
  10
1640.18
  20
2087.24
  0
VERTEX
  8
MMIC_Label
  10
1638.2
  20
2085.59
  0
VERTEX
  8
MMIC_Label
  10
1638.2
  20
2087.57
  0
VERTEX
  8
MMIC_Label
  10
1638.53
  20
2089.22
  0
VERTEX
  8
MMIC_Label
  10
1639.19
  20
2091.2
  0
VERTEX
  8
MMIC_Label
  10
1641.17
  20
2094.5
  0
VERTEX
  8
MMIC_Label
  10
1642.49
  20
2095.49
  0
VERTEX
  8
MMIC_Label
  10
1644.47
  20
2096.48
  0
VERTEX
  8
MMIC_Label
  10
1646.45
  20
2096.81
  0
VERTEX
  8
MMIC_Label
  10
1648.1
  20
2096.48
  0
VERTEX
  8
MMIC_Label
  10
1650.74
  20
2095.16
  0
VERTEX
  8
MMIC_Label
  10
1652.06
  20
2093.84
  0
SEQEND
  0
POLYLINE
  8
MMIC_Label
  70
1
  66
1
  0
VERTEX
  8
MMIC_Label
  10
1729
  20
54
  0
VERTEX
  8
MMIC_Label
  10
1734
  20
54
  0
VERTEX
  8
MMIC_Label
  10
1734
  20
64
  0
VERTEX
  8
MMIC_Label
  10
1744
  20
64
  0
VERTEX
  8
MMIC_Label
  10
1744
  20
69
  0
VERTEX
  8
MMIC_Label
  10
1734
  20
69
  0
VERTEX
  8
MMIC_Label
  10
1734
  20
79
  0
VERTEX
  8
MMIC_Label
  10
1729
  20
79
  0
VERTEX
  8
MMIC_Label
  10
1729
  20
69
  0
VERTEX
  8
MMIC_Label
  10
1719
  20
69
  0
VERTEX
  8
MMIC_Label
  10
1719
  20
64
  0
VERTEX
  8
MMIC_Label
  10
1729
  20
64
  0
SEQEND
  0
POLYLINE
  8
MMIC_Label
  70
1
  66
1
  0
VERTEX
  8
MMIC_Label
  10
1678.548
  20
1965.967
  0
VERTEX
  8
MMIC_Label
  10
1677.91
  20
1967.266
  0
VERTEX
  8
MMIC_Label
  10
1677.266
  20
1968.573
  0
VERTEX
  8
MMIC_Label
  10
1676.209
  20
1969.078
  0
VERTEX
  8
MMIC_Label
  10
1677.036
  20
1969.534
  0
VERTEX
  8
MMIC_Label
  10
1677.526
  20
1970.544
  0
VERTEX
  8
MMIC_Label
  10
1678.012
  20
1971.549
  0
VERTEX
  8
MMIC_Label
  10
1678.012
  20
1975.016
  0
VERTEX
  8
MMIC_Label
  10
1676.951
  20
1976.496
  0
VERTEX
  8
MMIC_Label
  10
1676.346
  20
1977.34
  0
VERTEX
  8
MMIC_Label
  10
1675.879
  20
1977.99
  0
VERTEX
  8
MMIC_Label
  10
1675.135
  20
1977.99
  0
VERTEX
  8
MMIC_Label
  10
1675.135
  20
1975.656
  0
VERTEX
  8
MMIC_Label
  10
1675.572
  20
1975.025
  0
VERTEX
  8
MMIC_Label
  10
1675.734
  20
1974.792
  0
VERTEX
  8
MMIC_Label
  10
1675.734
  20
1971.087
  0
VERTEX
  8
MMIC_Label
  10
1675.59
  20
1970.879
  0
VERTEX
  8
MMIC_Label
  10
1675.368
  20
1970.56
  0
VERTEX
  8
MMIC_Label
  10
1672.913
  20
1970.56
  0
VERTEX
  8
MMIC_Label
  10
1672.686
  20
1970.887
  0
VERTEX
  8
MMIC_Label
  10
1672.506
  20
1971.146
  0
VERTEX
  8
MMIC_Label
  10
1672.506
  20
1974.778
  0
VERTEX
  8
MMIC_Label
  10
1673.135
  20
1975.671
  0
VERTEX
  8
MMIC_Label
  10
1673.135
  20
1977.99
  0
VERTEX
  8
MMIC_Label
  10
1672.365
  20
1977.99
  0
VERTEX
  8
MMIC_Label
  10
1671.311
  20
1976.529
  0
VERTEX
  8
MMIC_Label
  10
1670.266
  20
1975.082
  0
VERTEX
  8
MMIC_Label
  10
1670.266
  20
1971.563
  0
VERTEX
  8
MMIC_Label
  10
1671.254
  20
1969.533
  0
VERTEX
  8
MMIC_Label
  10
1671.959
  20
1969.154
  0
VERTEX
  8
MMIC_Label
  10
1672.086
  20
1969.086
  0
VERTEX
  8
MMIC_Label
  10
1671.061
  20
1968.694
  0
VERTEX
  8
MMIC_Label
  10
1670.397
  20
1967.404
  0
VERTEX
  8
MMIC_Label
  10
1669.742
  20
1966.126
  0
VERTEX
  8
MMIC_Label
  10
1669.742
  20
1961.704
  0
VERTEX
  8
MMIC_Label
  10
1670.944
  20
1960.007
  0
VERTEX
  8
MMIC_Label
  10
1671.406
  20
1959.35
  0
VERTEX
  8
MMIC_Label
  10
1672.16
  20
1958.29
  0
VERTEX
  8
MMIC_Label
  10
1673.257
  20
1958.29
  0
VERTEX
  8
MMIC_Label
  10
1673.257
  20
1960.579
  0
VERTEX
  8
MMIC_Label
  10
1672.845
  20
1960.91
  0
VERTEX
  8
MMIC_Label
  10
1672.497
  20
1961.189
  0
VERTEX
  8
MMIC_Label
  10
1671.888
  20
1962.939
  0
VERTEX
  8
MMIC_Label
  10
1671.888
  20
1966.275
  0
VERTEX
  8
MMIC_Label
  10
1672.317
  20
1966.904
  0
VERTEX
  8
MMIC_Label
  10
1673.029
  20
1967.954
  0
VERTEX
  8
MMIC_Label
  10
1675.214
  20
1967.954
  0
VERTEX
  8
MMIC_Label
  10
1675.956
  20
1966.891
  0
VERTEX
  8
MMIC_Label
  10
1676.368
  20
1966.298
  0
VERTEX
  8
MMIC_Label
  10
1676.368
  20
1962.02
  0
VERTEX
  8
MMIC_Label
  10
1675.978
  20
1961.455
  0
VERTEX
  8
MMIC_Label
  10
1675.258
  20
1960.418
  0
VERTEX
  8
MMIC_Label
  10
1675.258
  20
1958.29
  0
VERTEX
  8
MMIC_Label
  10
1676.13
  20
1958.29
  0
VERTEX
  8
MMIC_Label
  10
1677.344
  20
1959.998
  0
VERTEX
  8
MMIC_Label
  10
1678.548
  20
1961.692
  0
SEQEND
  0
POLYLINE
  8
MMIC_Label
  70
1
  66
1
  0
VERTEX
  8
MMIC_Label
  10
1538.2
  20
1983.7
  0
VERTEX
  8
MMIC_Label
  10
1538.2
  20
2048.1
  0
VERTEX
  8
MMIC_Label
  10
1533.2
  20
2048.1
  0
VERTEX
  8
MMIC_Label
  10
1533.2
  20
1983.7
  0
SEQEND
  0
POLYLINE
  8
MMIC_Label
  70
1
  66
1
  0
VERTEX
  8
MMIC_Label
  10
1668.372
  20
1958.19
  0
VERTEX
  8
MMIC_Label
  10
1664.193
  20
1965.826
  0
VERTEX
  8
MMIC_Label
  10
1668.076
  20
1972.619
  0
VERTEX
  8
MMIC_Label
  10
1665.251
  20
1972.619
  0
VERTEX
  8
MMIC_Label
  10
1663.358
  20
1969.209
  0
VERTEX
  8
MMIC_Label
  10
1662.966
  20
1968.516
  0
VERTEX
  8
MMIC_Label
  10
1662.501
  20
1967.619
  0
VERTEX
  8
MMIC_Label
  10
1662.204
  20
1968.272
  0
VERTEX
  8
MMIC_Label
  10
1661.718
  20
1969.236
  0
VERTEX
  8
MMIC_Label
  10
1659.993
  20
1972.619
  0
VERTEX
  8
MMIC_Label
  10
1657.063
  20
1972.619
  0
VERTEX
  8
MMIC_Label
  10
1660.861
  20
1965.69
  0
VERTEX
  8
MMIC_Label
  10
1656.756
  20
1958.19
  0
VERTEX
  8
MMIC_Label
  10
1659.612
  20
1958.19
  0
VERTEX
  8
MMIC_Label
  10
1662.564
  20
1963.883
  0
VERTEX
  8
MMIC_Label
  10
1663.178
  20
1962.674
  0
VERTEX
  8
MMIC_Label
  10
1665.484
  20
1958.19
  0
SEQEND
  0
POLYLINE
  8
MMIC_Label
  70
1
  66
1
  0
VERTEX
  8
MMIC_Label
  10
1658.2
  20
1983.7
  0
VERTEX
  8
MMIC_Label
  10
1658.2
  20
2048.1
  0
VERTEX
  8
MMIC_Label
  10
1653.2
  20
2048.1
  0
VERTEX
  8
MMIC_Label
  10
1653.2
  20
1983.7
  0
SEQEND
  0
POLYLINE
  8
MMIC_Label
  70
1
  66
1
  0
VERTEX
  8
MMIC_Label
  10
1589.272
  20
1978.29
  0
VERTEX
  8
MMIC_Label
  10
1587.876
  20
1978.29
  0
VERTEX
  8
MMIC_Label
  10
1587.36
  20
1976.951
  0
VERTEX
  8
MMIC_Label
  10
1586.177
  20
1975.593
  0
VERTEX
  8
MMIC_Label
  10
1584.991
  20
1974.232
  0
VERTEX
  8
MMIC_Label
  10
1583.359
  20
1973.246
  0
VERTEX
  8
MMIC_Label
  10
1583.359
  20
1970.722
  0
VERTEX
  8
MMIC_Label
  10
1583.383
  20
1970.706
  0
VERTEX
  8
MMIC_Label
  10
1583.408
  20
1970.691
  0
VERTEX
  8
MMIC_Label
  10
1584.399
  20
1971.161
  0
VERTEX
  8
MMIC_Label
  10
1585.524
  20
1972.009
  0
VERTEX
  8
MMIC_Label
  10
1586.65
  20
1972.859
  0
VERTEX
  8
MMIC_Label
  10
1587.168
  20
1973.493
  0
VERTEX
  8
MMIC_Label
  10
1587.168
  20
1958.09
  0
VERTEX
  8
MMIC_Label
  10
1589.272
  20
1958.09
  0
SEQEND
  0
POLYLINE
  8
MMIC_Label
  70
1
  66
1
  0
VERTEX
  8
MMIC_Label
  10
1598.2
  20
1983.7
  0
VERTEX
  8
MMIC_Label
  10
1598.2
  20
2048.1
  0
VERTEX
  8
MMIC_Label
  10
1593.2
  20
2048.1
  0
VERTEX
  8
MMIC_Label
  10
1593.2
  20
1983.7
  0
SEQEND
  0
POLYLINE
  8
MMIC_Label
  70
1
  66
1
  0
VERTEX
  8
MMIC_Label
  10
1668.372
  20
1958.19
  0
VERTEX
  8
MMIC_Label
  10
1664.193
  20
1965.826
  0
VERTEX
  8
MMIC_Label
  10
1668.076
  20
1972.619
  0
VERTEX
  8
MMIC_Label
  10
1665.251
  20
1972.619
  0
VERTEX
  8
MMIC_Label
  10
1663.358
  20
1969.209
  0
VERTEX
  8
MMIC_Label
  10
1662.966
  20
1968.516
  0
VERTEX
  8
MMIC_Label
  10
1662.501
  20
1967.619
  0
VERTEX
  8
MMIC_Label
  10
1662.204
  20
1968.272
  0
VERTEX
  8
MMIC_Label
  10
1661.718
  20
1969.236
  0
VERTEX
  8
MMIC_Label
  10
1659.993
  20
1972.619
  0
VERTEX
  8
MMIC_Label
  10
1657.063
  20
1972.619
  0
VERTEX
  8
MMIC_Label
  10
1660.861
  20
1965.69
  0
VERTEX
  8
MMIC_Label
  10
1656.756
  20
1958.19
  0
VERTEX
  8
MMIC_Label
  10
1659.612
  20
1958.19
  0
VERTEX
  8
MMIC_Label
  10
1662.564
  20
1963.883
  0
VERTEX
  8
MMIC_Label
  10
1663.178
  20
1962.674
  0
VERTEX
  8
MMIC_Label
  10
1665.484
  20
1958.19
  0
SEQEND
  0
POLYLINE
  8
MMIC_Label
  70
1
  66
1
  0
VERTEX
  8
MMIC_Label
  10
1755.57
  20
72.48
  0
VERTEX
  8
MMIC_Label
  10
1755.9
  20
74.13
  0
VERTEX
  8
MMIC_Label
  10
1756.56
  20
75.78
  0
VERTEX
  8
MMIC_Label
  10
1757.55
  20
76.77
  0
VERTEX
  8
MMIC_Label
  10
1758.87
  20
77.76
  0
VERTEX
  8
MMIC_Label
  10
1760.19
  20
78.09
  0
VERTEX
  8
MMIC_Label
  10
1761.84
  20
78.42
  0
VERTEX
  8
MMIC_Label
  10
1763.49
  20
78.42
  0
VERTEX
  8
MMIC_Label
  10
1764.81
  20
78.09
  0
VERTEX
  8
MMIC_Label
  10
1766.46
  20
77.76
  0
VERTEX
  8
MMIC_Label
  10
1768.44
  20
75.78
  0
VERTEX
  8
MMIC_Label
  10
1769.1
  20
74.13
  0
VERTEX
  8
MMIC_Label
  10
1769.43
  20
72.48
  0
VERTEX
  8
MMIC_Label
  10
1769.1
  20
70.83
  0
VERTEX
  8
MMIC_Label
  10
1768.44
  20
69.51
  0
VERTEX
  8
MMIC_Label
  10
1767.45
  20
68.19
  0
VERTEX
  8
MMIC_Label
  10
1766.46
  20
67.2
  0
VERTEX
  8
MMIC_Label
  10
1764.81
  20
66.87
  0
VERTEX
  8
MMIC_Label
  10
1763.49
  20
66.54
  0
VERTEX
  8
MMIC_Label
  10
1761.84
  20
66.54
  0
VERTEX
  8
MMIC_Label
  10
1760.19
  20
66.87
  0
VERTEX
  8
MMIC_Label
  10
1758.87
  20
67.2
  0
VERTEX
  8
MMIC_Label
  10
1757.55
  20
68.19
  0
VERTEX
  8
MMIC_Label
  10
1756.56
  20
69.51
  0
VERTEX
  8
MMIC_Label
  10
1755.9
  20
70.83
  0
SEQEND
  0
POLYLINE
  8
MMIC_Label
  70
1
  66
1
  0
VERTEX
  8
MMIC_Label
  10
1613.2
  20
2048.1
  0
VERTEX
  8
MMIC_Label
  10
1638.2
  20
2048.1
  0
VERTEX
  8
MMIC_Label
  10
1638.2
  20
2043.1
  0
VERTEX
  8
MMIC_Label
  10
1613.2
  20
2043.1
  0
SEQEND
  0
POLYLINE
  8
MMIC_Label
  70
1
  66
1
  0
VERTEX
  8
MMIC_Label
  10
1792.66
  20
2421.065
  0
VERTEX
  8
MMIC_Label
  10
1790.68
  20
2421.395
  0
VERTEX
  8
MMIC_Label
  10
1788.7
  20
2422.715
  0
VERTEX
  8
MMIC_Label
  10
1788.04
  20
2423.375
  0
VERTEX
  8
MMIC_Label
  10
1786.06
  20
2421.065
  0
VERTEX
  8
MMIC_Label
  10
1782.43
  20
2424.365
  0
VERTEX
  8
MMIC_Label
  10
1784.74
  20
2427.335
  0
VERTEX
  8
MMIC_Label
  10
1784.41
  20
2427.995
  0
VERTEX
  8
MMIC_Label
  10
1783.75
  20
2429.975
  0
VERTEX
  8
MMIC_Label
  10
1783.09
  20
2432.615
  0
VERTEX
  8
MMIC_Label
  10
1782.76
  20
2434.925
  0
VERTEX
  8
MMIC_Label
  10
1782.43
  20
2437.565
  0
VERTEX
  8
MMIC_Label
  10
1782.76
  20
2440.205
  0
VERTEX
  8
MMIC_Label
  10
1783.09
  20
2442.515
  0
VERTEX
  8
MMIC_Label
  10
1783.75
  20
2445.155
  0
VERTEX
  8
MMIC_Label
  10
1784.41
  20
2447.135
  0
VERTEX
  8
MMIC_Label
  10
1785.73
  20
2449.445
  0
VERTEX
  8
MMIC_Label
  10
1787.05
  20
2451.095
  0
VERTEX
  8
MMIC_Label
  10
1788.7
  20
2452.415
  0
VERTEX
  8
MMIC_Label
  10
1790.68
  20
2453.735
  0
VERTEX
  8
MMIC_Label
  10
1792.66
  20
2454.065
  0
VERTEX
  8
MMIC_Label
  10
1797.61
  20
2454.065
  0
VERTEX
  8
MMIC_Label
  10
1799.59
  20
2453.735
  0
VERTEX
  8
MMIC_Label
  10
1801.57
  20
2452.415
  0
VERTEX
  8
MMIC_Label
  10
1802.56
  20
2451.425
  0
VERTEX
  8
MMIC_Label
  10
1804.54
  20
2454.065
  0
VERTEX
  8
MMIC_Label
  10
1807.84
  20
2451.095
  0
VERTEX
  8
MMIC_Label
  10
1805.53
  20
2447.795
  0
VERTEX
  8
MMIC_Label
  10
1806.85
  20
2445.155
  0
VERTEX
  8
MMIC_Label
  10
1807.18
  20
2442.515
  0
VERTEX
  8
MMIC_Label
  10
1807.84
  20
2440.205
  0
VERTEX
  8
MMIC_Label
  10
1807.84
  20
2434.925
  0
VERTEX
  8
MMIC_Label
  10
1807.18
  20
2432.615
  0
VERTEX
  8
MMIC_Label
  10
1806.85
  20
2429.975
  0
VERTEX
  8
MMIC_Label
  10
1805.86
  20
2427.995
  0
VERTEX
  8
MMIC_Label
  10
1804.54
  20
2425.685
  0
VERTEX
  8
MMIC_Label
  10
1803.22
  20
2424.035
  0
VERTEX
  8
MMIC_Label
  10
1801.57
  20
2422.715
  0
VERTEX
  8
MMIC_Label
  10
1799.59
  20
2421.395
  0
VERTEX
  8
MMIC_Label
  10
1797.61
  20
2421.065
  0
SEQEND
  0
POLYLINE
  8
MMIC_Label
  70
1
  66
1
  0
VERTEX
  8
MMIC_Label
  10
1688.2
  20
1983.7
  0
VERTEX
  8
MMIC_Label
  10
1688.2
  20
2048.1
  0
VERTEX
  8
MMIC_Label
  10
1683.2
  20
2048.1
  0
VERTEX
  8
MMIC_Label
  10
1683.2
  20
1983.7
  0
SEQEND
  0
POLYLINE
  8
MMIC_Label
  70
1
  66
1
  0
VERTEX
  8
MMIC_Label
  10
1533.2
  20
2068.1
  0
VERTEX
  8
MMIC_Label
  10
1533.2
  20
2101.1
  0
VERTEX
  8
MMIC_Label
  10
1541.45
  20
2101.1
  0
VERTEX
  8
MMIC_Label
  10
1547.06
  20
2078.99
  0
VERTEX
  8
MMIC_Label
  10
1552.34
  20
2101.1
  0
VERTEX
  8
MMIC_Label
  10
1560.59
  20
2101.1
  0
VERTEX
  8
MMIC_Label
  10
1560.59
  20
2068.1
  0
VERTEX
  8
MMIC_Label
  10
1555.31
  20
2068.1
  0
VERTEX
  8
MMIC_Label
  10
1555.31
  20
2095.49
  0
VERTEX
  8
MMIC_Label
  10
1549.04
  20
2073.71
  0
VERTEX
  8
MMIC_Label
  10
1544.75
  20
2073.71
  0
VERTEX
  8
MMIC_Label
  10
1538.15
  20
2095.49
  0
VERTEX
  8
MMIC_Label
  10
1538.15
  20
2068.1
  0
SEQEND
  0
POLYLINE
  8
MMIC_Label
  70
1
  66
1
  0
VERTEX
  8
MMIC_Label
  10
1609.96
  20
1958.19
  0
VERTEX
  8
MMIC_Label
  10
1605.781
  20
1965.826
  0
VERTEX
  8
MMIC_Label
  10
1609.664
  20
1972.619
  0
VERTEX
  8
MMIC_Label
  10
1606.839
  20
1972.619
  0
VERTEX
  8
MMIC_Label
  10
1604.946
  20
1969.209
  0
VERTEX
  8
MMIC_Label
  10
1604.554
  20
1968.516
  0
VERTEX
  8
MMIC_Label
  10
1604.089
  20
1967.619
  0
VERTEX
  8
MMIC_Label
  10
1603.792
  20
1968.272
  0
VERTEX
  8
MMIC_Label
  10
1603.306
  20
1969.236
  0
VERTEX
  8
MMIC_Label
  10
1601.581
  20
1972.619
  0
VERTEX
  8
MMIC_Label
  10
1598.651
  20
1972.619
  0
VERTEX
  8
MMIC_Label
  10
1602.449
  20
1965.69
  0
VERTEX
  8
MMIC_Label
  10
1598.344
  20
1958.19
  0
VERTEX
  8
MMIC_Label
  10
1601.2
  20
1958.19
  0
VERTEX
  8
MMIC_Label
  10
1604.152
  20
1963.883
  0
VERTEX
  8
MMIC_Label
  10
1604.766
  20
1962.674
  0
VERTEX
  8
MMIC_Label
  10
1607.072
  20
1958.19
  0
SEQEND
  0
POLYLINE
  8
MMIC_Label
  70
1
  66
1
  0
VERTEX
  8
MMIC_Label
  10
169.8
  20
2020.57
  0
VERTEX
  8
MMIC_Label
  10
172.11
  20
2020.9
  0
VERTEX
  8
MMIC_Label
  10
174.09
  20
2021.89
  0
VERTEX
  8
MMIC_Label
  10
175.74
  20
2023.21
  0
VERTEX
  8
MMIC_Label
  10
177.06
  20
2024.86
  0
VERTEX
  8
MMIC_Label
  10
178.05
  20
2026.84
  0
VERTEX
  8
MMIC_Label
  10
179.04
  20
2029.15
  0
VERTEX
  8
MMIC_Label
  10
179.04
  20
2037.4
  0
VERTEX
  8
MMIC_Label
  10
177.72
  20
2041.36
  0
VERTEX
  8
MMIC_Label
  10
176.4
  20
2043.34
  0
VERTEX
  8
MMIC_Label
  10
174.75
  20
2044.66
  0
VERTEX
  8
MMIC_Label
  10
172.77
  20
2045.65
  0
VERTEX
  8
MMIC_Label
  10
170.13
  20
2045.98
  0
VERTEX
  8
MMIC_Label
  10
167.82
  20
2045.32
  0
VERTEX
  8
MMIC_Label
  10
165.51
  20
2044.33
  0
VERTEX
  8
MMIC_Label
  10
163.86
  20
2042.68
  0
VERTEX
  8
MMIC_Label
  10
162.54
  20
2041.03
  0
VERTEX
  8
MMIC_Label
  10
161.55
  20
2039.05
  0
VERTEX
  8
MMIC_Label
  10
160.89
  20
2037.07
  0
VERTEX
  8
MMIC_Label
  10
158.58
  20
2031.13
  0
VERTEX
  8
MMIC_Label
  10
157.92
  20
2028.49
  0
VERTEX
  8
MMIC_Label
  10
155.94
  20
2026.51
  0
VERTEX
  8
MMIC_Label
  10
154.29
  20
2026.18
  0
VERTEX
  8
MMIC_Label
  10
152.64
  20
2026.51
  0
VERTEX
  8
MMIC_Label
  10
151.65
  20
2027.83
  0
VERTEX
  8
MMIC_Label
  10
150.99
  20
2030.47
  0
VERTEX
  8
MMIC_Label
  10
150.99
  20
2033.11
  0
VERTEX
  8
MMIC_Label
  10
151.65
  20
2036.41
  0
VERTEX
  8
MMIC_Label
  10
152.31
  20
2037.73
  0
VERTEX
  8
MMIC_Label
  10
153.3
  20
2039.05
  0
VERTEX
  8
MMIC_Label
  10
154.62
  20
2040.04
  0
VERTEX
  8
MMIC_Label
  10
156.6
  20
2040.37
  0
VERTEX
  8
MMIC_Label
  10
156.6
  20
2046.97
  0
VERTEX
  8
MMIC_Label
  10
153.96
  20
2046.64
  0
VERTEX
  8
MMIC_Label
  10
151.65
  20
2045.65
  0
VERTEX
  8
MMIC_Label
  10
149.67
  20
2044
  0
VERTEX
  8
MMIC_Label
  10
148.35
  20
2042.35
  0
VERTEX
  8
MMIC_Label
  10
147.03
  20
2040.04
  0
VERTEX
  8
MMIC_Label
  10
146.04
  20
2038.06
  0
VERTEX
  8
MMIC_Label
  10
146.04
  20
2028.82
  0
VERTEX
  8
MMIC_Label
  10
146.37
  20
2026.51
  0
VERTEX
  8
MMIC_Label
  10
147.36
  20
2024.53
  0
VERTEX
  8
MMIC_Label
  10
148.68
  20
2022.55
  0
VERTEX
  8
MMIC_Label
  10
150.33
  20
2020.9
  0
VERTEX
  8
MMIC_Label
  10
152.31
  20
2019.91
  0
VERTEX
  8
MMIC_Label
  10
154.95
  20
2019.58
  0
VERTEX
  8
MMIC_Label
  10
157.26
  20
2019.91
  0
VERTEX
  8
MMIC_Label
  10
159.24
  20
2020.57
  0
VERTEX
  8
MMIC_Label
  10
160.89
  20
2021.89
  0
VERTEX
  8
MMIC_Label
  10
162.21
  20
2023.54
  0
VERTEX
  8
MMIC_Label
  10
163.2
  20
2025.52
  0
VERTEX
  8
MMIC_Label
  10
164.19
  20
2027.17
  0
VERTEX
  8
MMIC_Label
  10
164.85
  20
2028.82
  0
VERTEX
  8
MMIC_Label
  10
166.83
  20
2035.42
  0
VERTEX
  8
MMIC_Label
  10
167.49
  20
2036.74
  0
VERTEX
  8
MMIC_Label
  10
168.15
  20
2037.73
  0
VERTEX
  8
MMIC_Label
  10
169.14
  20
2038.72
  0
VERTEX
  8
MMIC_Label
  10
170.79
  20
2039.38
  0
VERTEX
  8
MMIC_Label
  10
172.44
  20
2038.72
  0
VERTEX
  8
MMIC_Label
  10
173.43
  20
2037.4
  0
VERTEX
  8
MMIC_Label
  10
173.76
  20
2036.08
  0
VERTEX
  8
MMIC_Label
  10
174.09
  20
2034.43
  0
VERTEX
  8
MMIC_Label
  10
174.09
  20
2033.11
  0
VERTEX
  8
MMIC_Label
  10
173.76
  20
2031.79
  0
VERTEX
  8
MMIC_Label
  10
173.43
  20
2030.14
  0
VERTEX
  8
MMIC_Label
  10
172.77
  20
2028.49
  0
VERTEX
  8
MMIC_Label
  10
171.45
  20
2027.17
  0
VERTEX
  8
MMIC_Label
  10
169.8
  20
2026.51
  0
SEQEND
  0
POLYLINE
  8
MMIC_Label
  70
1
  66
1
  0
VERTEX
  8
MMIC_Label
  10
1648.1
  20
2106.1
  0
VERTEX
  8
MMIC_Label
  10
1648.1
  20
2113.69
  0
VERTEX
  8
MMIC_Label
  10
1631.6
  20
2113.69
  0
VERTEX
  8
MMIC_Label
  10
1631.6
  20
2118.31
  0
VERTEX
  8
MMIC_Label
  10
1647.11
  20
2139.1
  0
VERTEX
  8
MMIC_Label
  10
1654.04
  20
2139.1
  0
VERTEX
  8
MMIC_Label
  10
1654.04
  20
2118.64
  0
VERTEX
  8
MMIC_Label
  10
1658.99
  20
2118.64
  0
VERTEX
  8
MMIC_Label
  10
1658.99
  20
2113.69
  0
VERTEX
  8
MMIC_Label
  10
1654.04
  20
2113.69
  0
VERTEX
  8
MMIC_Label
  10
1654.04
  20
2106.1
  0
SEQEND
  0
POLYLINE
  8
MMIC_Label
  70
1
  66
1
  0
VERTEX
  8
MMIC_Label
  10
1663.2
  20
2008.8
  0
VERTEX
  8
MMIC_Label
  10
1678.2
  20
2008.8
  0
VERTEX
  8
MMIC_Label
  10
1678.2
  20
1993.8
  0
VERTEX
  8
MMIC_Label
  10
1663.2
  20
1993.8
  0
SEQEND
  0
POLYLINE
  8
MMIC_Label
  70
1
  66
1
  0
VERTEX
  8
MMIC_Label
  10
1593.39
  20
2128.54
  0
VERTEX
  8
MMIC_Label
  10
1592.73
  20
2130.85
  0
VERTEX
  8
MMIC_Label
  10
1591.74
  20
2133.16
  0
VERTEX
  8
MMIC_Label
  10
1590.42
  20
2134.81
  0
VERTEX
  8
MMIC_Label
  10
1588.77
  20
2136.46
  0
VERTEX
  8
MMIC_Label
  10
1587.12
  20
2137.78
  0
VERTEX
  8
MMIC_Label
  10
1584.81
  20
2138.77
  0
VERTEX
  8
MMIC_Label
  10
1582.83
  20
2139.1
  0
VERTEX
  8
MMIC_Label
  10
1577.55
  20
2139.1
  0
VERTEX
  8
MMIC_Label
  10
1575.24
  20
2138.77
  0
VERTEX
  8
MMIC_Label
  10
1572.93
  20
2137.45
  0
VERTEX
  8
MMIC_Label
  10
1571.28
  20
2136.13
  0
VERTEX
  8
MMIC_Label
  10
1569.63
  20
2134.48
  0
VERTEX
  8
MMIC_Label
  10
1568.31
  20
2132.17
  0
VERTEX
  8
MMIC_Label
  10
1567.32
  20
2130.19
  0
VERTEX
  8
MMIC_Label
  10
1566.66
  20
2127.55
  0
VERTEX
  8
MMIC_Label
  10
1566.33
  20
2125.24
  0
VERTEX
  8
MMIC_Label
  10
1566
  20
2122.6
  0
VERTEX
  8
MMIC_Label
  10
1566.33
  20
2119.96
  0
VERTEX
  8
MMIC_Label
  10
1566.66
  20
2117.65
  0
VERTEX
  8
MMIC_Label
  10
1567.32
  20
2115.01
  0
VERTEX
  8
MMIC_Label
  10
1568.31
  20
2113.03
  0
VERTEX
  8
MMIC_Label
  10
1569.63
  20
2110.72
  0
VERTEX
  8
MMIC_Label
  10
1571.28
  20
2109.07
  0
VERTEX
  8
MMIC_Label
  10
1572.93
  20
2107.75
  0
VERTEX
  8
MMIC_Label
  10
1575.24
  20
2106.43
  0
VERTEX
  8
MMIC_Label
  10
1577.55
  20
2106.1
  0
VERTEX
  8
MMIC_Label
  10
1582.17
  20
2106.1
  0
VERTEX
  8
MMIC_Label
  10
1584.15
  20
2106.43
  0
VERTEX
  8
MMIC_Label
  10
1587.45
  20
2108.41
  0
VERTEX
  8
MMIC_Label
  10
1588.44
  20
2110.06
  0
VERTEX
  8
MMIC_Label
  10
1589.76
  20
2106.1
  0
VERTEX
  8
MMIC_Label
  10
1593.39
  20
2106.1
  0
VERTEX
  8
MMIC_Label
  10
1593.39
  20
2122.6
  0
VERTEX
  8
MMIC_Label
  10
1580.85
  20
2122.6
  0
VERTEX
  8
MMIC_Label
  10
1580.85
  20
2117.65
  0
VERTEX
  8
MMIC_Label
  10
1586.79
  20
2117.65
  0
VERTEX
  8
MMIC_Label
  10
1586.46
  20
2116
  0
VERTEX
  8
MMIC_Label
  10
1585.8
  20
2114.35
  0
VERTEX
  8
MMIC_Label
  10
1584.81
  20
2113.03
  0
VERTEX
  8
MMIC_Label
  10
1583.49
  20
2112.04
  0
VERTEX
  8
MMIC_Label
  10
1582.17
  20
2111.38
  0
VERTEX
  8
MMIC_Label
  10
1580.19
  20
2111.05
  0
VERTEX
  8
MMIC_Label
  10
1578.54
  20
2111.38
  0
VERTEX
  8
MMIC_Label
  10
1576.89
  20
2112.04
  0
VERTEX
  8
MMIC_Label
  10
1575.57
  20
2113.03
  0
VERTEX
  8
MMIC_Label
  10
1574.25
  20
2114.68
  0
VERTEX
  8
MMIC_Label
  10
1573.59
  20
2116.33
  0
VERTEX
  8
MMIC_Label
  10
1572.93
  20
2118.31
  0
VERTEX
  8
MMIC_Label
  10
1572.6
  20
2120.29
  0
VERTEX
  8
MMIC_Label
  10
1572.6
  20
2124.91
  0
VERTEX
  8
MMIC_Label
  10
1572.93
  20
2126.89
  0
VERTEX
  8
MMIC_Label
  10
1573.59
  20
2128.87
  0
VERTEX
  8
MMIC_Label
  10
1574.25
  20
2130.52
  0
VERTEX
  8
MMIC_Label
  10
1575.57
  20
2132.17
  0
VERTEX
  8
MMIC_Label
  10
1576.89
  20
2133.16
  0
VERTEX
  8
MMIC_Label
  10
1578.54
  20
2133.82
  0
VERTEX
  8
MMIC_Label
  10
1580.19
  20
2134.15
  0
VERTEX
  8
MMIC_Label
  10
1582.17
  20
2133.82
  0
VERTEX
  8
MMIC_Label
  10
1583.82
  20
2132.83
  0
VERTEX
  8
MMIC_Label
  10
1585.14
  20
2131.84
  0
VERTEX
  8
MMIC_Label
  10
1586.13
  20
2130.19
  0
VERTEX
  8
MMIC_Label
  10
1586.79
  20
2128.54
  0
SEQEND
  0
POLYLINE
  8
MMIC_Label
  70
1
  66
1
  0
VERTEX
  8
MMIC_Label
  10
146.04
  20
1981.37
  0
VERTEX
  8
MMIC_Label
  10
179.04
  20
1981.37
  0
VERTEX
  8
MMIC_Label
  10
179.04
  20
1973.12
  0
VERTEX
  8
MMIC_Label
  10
156.93
  20
1967.51
  0
VERTEX
  8
MMIC_Label
  10
179.04
  20
1962.23
  0
VERTEX
  8
MMIC_Label
  10
179.04
  20
1953.98
  0
VERTEX
  8
MMIC_Label
  10
146.04
  20
1953.98
  0
VERTEX
  8
MMIC_Label
  10
146.04
  20
1959.26
  0
VERTEX
  8
MMIC_Label
  10
173.43
  20
1959.26
  0
VERTEX
  8
MMIC_Label
  10
151.65
  20
1965.53
  0
VERTEX
  8
MMIC_Label
  10
151.65
  20
1969.82
  0
VERTEX
  8
MMIC_Label
  10
173.43
  20
1976.42
  0
VERTEX
  8
MMIC_Label
  10
146.04
  20
1976.42
  0
SEQEND
  0
POLYLINE
  8
MMIC_Label
  70
1
  66
1
  0
VERTEX
  8
MMIC_Label
  10
1533.2
  20
2068.1
  0
VERTEX
  8
MMIC_Label
  10
1533.2
  20
2101.1
  0
VERTEX
  8
MMIC_Label
  10
1541.45
  20
2101.1
  0
VERTEX
  8
MMIC_Label
  10
1547.06
  20
2078.99
  0
VERTEX
  8
MMIC_Label
  10
1552.34
  20
2101.1
  0
VERTEX
  8
MMIC_Label
  10
1560.59
  20
2101.1
  0
VERTEX
  8
MMIC_Label
  10
1560.59
  20
2068.1
  0
VERTEX
  8
MMIC_Label
  10
1555.31
  20
2068.1
  0
VERTEX
  8
MMIC_Label
  10
1555.31
  20
2095.49
  0
VERTEX
  8
MMIC_Label
  10
1549.04
  20
2073.71
  0
VERTEX
  8
MMIC_Label
  10
1544.75
  20
2073.71
  0
VERTEX
  8
MMIC_Label
  10
1538.15
  20
2095.49
  0
VERTEX
  8
MMIC_Label
  10
1538.15
  20
2068.1
  0
SEQEND
  0
POLYLINE
  8
MMIC_Label
  70
1
  66
1
  0
VERTEX
  8
MMIC_Label
  10
1718.541
  20
1963.623
  0
VERTEX
  8
MMIC_Label
  10
1717.945
  20
1968.097
  0
VERTEX
  8
MMIC_Label
  10
1717.942
  20
1968.106
  0
VERTEX
  8
MMIC_Label
  10
1716.034
  20
1971.16
  0
VERTEX
  8
MMIC_Label
  10
1711.353
  20
1971.16
  0
VERTEX
  8
MMIC_Label
  10
1711.353
  20
1968.39
  0
VERTEX
  8
MMIC_Label
  10
1714.805
  20
1968.39
  0
VERTEX
  8
MMIC_Label
  10
1715.248
  20
1967.891
  0
VERTEX
  8
MMIC_Label
  10
1715.547
  20
1967.414
  0
VERTEX
  8
MMIC_Label
  10
1716.026
  20
1963.831
  0
VERTEX
  8
MMIC_Label
  10
1715.034
  20
1961.515
  0
VERTEX
  8
MMIC_Label
  10
1714.861
  20
1961.256
  0
VERTEX
  8
MMIC_Label
  10
1713.626
  20
1960.601
  0
VERTEX
  8
MMIC_Label
  10
1711.777
  20
1960.685
  0
VERTEX
  8
MMIC_Label
  10
1710.543
  20
1960.932
  0
VERTEX
  8
MMIC_Label
  10
1709.737
  20
1961.469
  0
VERTEX
  8
MMIC_Label
  10
1708.953
  20
1963.116
  0
VERTEX
  8
MMIC_Label
  10
1708.953
  20
1975.03
  0
VERTEX
  8
MMIC_Label
  10
1709.008
  20
1975.467
  0
VERTEX
  8
MMIC_Label
  10
1709.922
  20
1976.534
  0
VERTEX
  8
MMIC_Label
  10
1710.271
  20
1976.767
  0
VERTEX
  8
MMIC_Label
  10
1711.546
  20
1977.107
  0
VERTEX
  8
MMIC_Label
  10
1712.133
  20
1977.18
  0
VERTEX
  8
MMIC_Label
  10
1714.041
  20
1976.862
  0
VERTEX
  8
MMIC_Label
  10
1714.548
  20
1976.291
  0
VERTEX
  8
MMIC_Label
  10
1714.921
  20
1975.694
  0
VERTEX
  8
MMIC_Label
  10
1715.183
  20
1974.647
  0
VERTEX
  8
MMIC_Label
  10
1717.342
  20
1975.188
  0
VERTEX
  8
MMIC_Label
  10
1716.889
  20
1977.002
  0
VERTEX
  8
MMIC_Label
  10
1716.86
  20
1977.048
  0
VERTEX
  8
MMIC_Label
  10
1714.907
  20
1979.244
  0
VERTEX
  8
MMIC_Label
  10
1712.173
  20
1979.7
  0
VERTEX
  8
MMIC_Label
  10
1711.16
  20
1979.573
  0
VERTEX
  8
MMIC_Label
  10
1709.157
  20
1979.039
  0
VERTEX
  8
MMIC_Label
  10
1706.396
  20
1975.82
  0
VERTEX
  8
MMIC_Label
  10
1706.313
  20
1975.15
  0
VERTEX
  8
MMIC_Label
  10
1706.313
  20
1962.664
  0
VERTEX
  8
MMIC_Label
  10
1707.97
  20
1959.183
  0
VERTEX
  8
MMIC_Label
  10
1709.343
  20
1958.268
  0
VERTEX
  8
MMIC_Label
  10
1711.109
  20
1957.915
  0
VERTEX
  8
MMIC_Label
  10
1714.459
  20
1957.763
  0
VERTEX
  8
MMIC_Label
  10
1715.972
  20
1958.562
  0
VERTEX
  8
MMIC_Label
  10
1717.092
  20
1960.245
  0
SEQEND
  0
POLYLINE
  8
MMIC_Label
  70
1
  66
1
  0
VERTEX
  8
MMIC_Label
  10
1648.1
  20
2118.64
  0
VERTEX
  8
MMIC_Label
  10
1638.2
  20
2118.64
  0
VERTEX
  8
MMIC_Label
  10
1648.1
  20
2131.84
  0
SEQEND
  0
POLYLINE
  8
MMIC_Label
  70
1
  66
1
  0
VERTEX
  8
MMIC_Label
  10
1533.2
  20
1983.7
  0
VERTEX
  8
MMIC_Label
  10
1533.3
  20
1983.7
  0
VERTEX
  8
MMIC_Label
  10
1533.3
  20
1983.8
  0
VERTEX
  8
MMIC_Label
  10
1533.2
  20
1983.8
  0
SEQEND
  0
POLYLINE
  8
MMIC_Trace
  70
1
  66
1
  0
VERTEX
  8
MMIC_Trace
  10
1768.449
  20
259.52
  0
VERTEX
  8
MMIC_Trace
  10
1768.593
  20
258.55
  0
VERTEX
  8
MMIC_Trace
  10
1768.831
  20
257.598
  0
VERTEX
  8
MMIC_Trace
  10
1769.162
  20
256.674
  0
VERTEX
  8
MMIC_Trace
  10
1769.581
  20
255.787
  0
VERTEX
  8
MMIC_Trace
  10
1770.086
  20
254.945
  0
VERTEX
  8
MMIC_Trace
  10
1770.67
  20
254.157
  0
VERTEX
  8
MMIC_Trace
  10
1771.329
  20
253.429
  0
VERTEX
  8
MMIC_Trace
  10
1772.057
  20
252.77
  0
VERTEX
  8
MMIC_Trace
  10
1772.845
  20
252.186
  0
VERTEX
  8
MMIC_Trace
  10
1773.687
  20
251.681
  0
VERTEX
  8
MMIC_Trace
  10
1774.574
  20
251.262
  0
VERTEX
  8
MMIC_Trace
  10
1775.498
  20
250.931
  0
VERTEX
  8
MMIC_Trace
  10
1776.45
  20
250.693
  0
VERTEX
  8
MMIC_Trace
  10
1777.42
  20
250.549
  0
VERTEX
  8
MMIC_Trace
  10
1778.4
  20
250.5
  0
VERTEX
  8
MMIC_Trace
  10
1952
  20
250.5
  0
VERTEX
  8
MMIC_Trace
  10
1952.98
  20
250.548
  0
VERTEX
  8
MMIC_Trace
  10
1953.951
  20
250.692
  0
VERTEX
  8
MMIC_Trace
  10
1954.903
  20
250.931
  0
VERTEX
  8
MMIC_Trace
  10
1955.827
  20
251.261
  0
VERTEX
  8
MMIC_Trace
  10
1956.714
  20
251.681
  0
VERTEX
  8
MMIC_Trace
  10
1957.556
  20
252.185
  0
VERTEX
  8
MMIC_Trace
  10
1958.344
  20
252.77
  0
VERTEX
  8
MMIC_Trace
  10
1959.071
  20
253.429
  0
VERTEX
  8
MMIC_Trace
  10
1959.73
  20
254.156
  0
VERTEX
  8
MMIC_Trace
  10
1960.315
  20
254.944
  0
VERTEX
  8
MMIC_Trace
  10
1960.819
  20
255.786
  0
VERTEX
  8
MMIC_Trace
  10
1961.239
  20
256.673
  0
VERTEX
  8
MMIC_Trace
  10
1961.569
  20
257.597
  0
VERTEX
  8
MMIC_Trace
  10
1961.808
  20
258.549
  0
VERTEX
  8
MMIC_Trace
  10
1961.952
  20
259.52
  0
VERTEX
  8
MMIC_Trace
  10
1962
  20
260.5
  0
VERTEX
  8
MMIC_Trace
  10
1962
  20
315.5
  0
VERTEX
  8
MMIC_Trace
  10
1961.952
  20
316.48
  0
VERTEX
  8
MMIC_Trace
  10
1961.808
  20
317.451
  0
VERTEX
  8
MMIC_Trace
  10
1961.569
  20
318.403
  0
VERTEX
  8
MMIC_Trace
  10
1961.239
  20
319.327
  0
VERTEX
  8
MMIC_Trace
  10
1960.819
  20
320.214
  0
VERTEX
  8
MMIC_Trace
  10
1960.315
  20
321.056
  0
VERTEX
  8
MMIC_Trace
  10
1959.73
  20
321.844
  0
VERTEX
  8
MMIC_Trace
  10
1959.071
  20
322.571
  0
VERTEX
  8
MMIC_Trace
  10
1958.344
  20
323.23
  0
VERTEX
  8
MMIC_Trace
  10
1957.556
  20
323.815
  0
VERTEX
  8
MMIC_Trace
  10
1956.714
  20
324.319
  0
VERTEX
  8
MMIC_Trace
  10
1955.827
  20
324.739
  0
VERTEX
  8
MMIC_Trace
  10
1954.903
  20
325.069
  0
VERTEX
  8
MMIC_Trace
  10
1953.951
  20
325.308
  0
VERTEX
  8
MMIC_Trace
  10
1952.98
  20
325.452
  0
VERTEX
  8
MMIC_Trace
  10
1952
  20
325.5
  0
VERTEX
  8
MMIC_Trace
  10
1778.4
  20
325.5
  0
VERTEX
  8
MMIC_Trace
  10
1777.42
  20
325.452
  0
VERTEX
  8
MMIC_Trace
  10
1776.45
  20
325.308
  0
VERTEX
  8
MMIC_Trace
  10
1775.498
  20
325.07
  0
VERTEX
  8
MMIC_Trace
  10
1774.574
  20
324.739
  0
VERTEX
  8
MMIC_Trace
  10
1773.687
  20
324.32
  0
VERTEX
  8
MMIC_Trace
  10
1772.845
  20
323.815
  0
VERTEX
  8
MMIC_Trace
  10
1772.057
  20
323.231
  0
VERTEX
  8
MMIC_Trace
  10
1771.329
  20
322.572
  0
VERTEX
  8
MMIC_Trace
  10
1770.67
  20
321.844
  0
VERTEX
  8
MMIC_Trace
  10
1770.086
  20
321.056
  0
VERTEX
  8
MMIC_Trace
  10
1769.581
  20
320.214
  0
VERTEX
  8
MMIC_Trace
  10
1769.162
  20
319.327
  0
VERTEX
  8
MMIC_Trace
  10
1768.831
  20
318.403
  0
VERTEX
  8
MMIC_Trace
  10
1768.593
  20
317.451
  0
VERTEX
  8
MMIC_Trace
  10
1768.449
  20
316.481
  0
VERTEX
  8
MMIC_Trace
  10
1768.4
  20
315.5
  0
VERTEX
  8
MMIC_Trace
  10
1768.4
  20
260.5
  0
SEQEND
  0
POLYLINE
  8
MMIC_Trace
  70
1
  66
1
  0
VERTEX
  8
MMIC_Trace
  10
48
  20
1618.5
  0
VERTEX
  8
MMIC_Trace
  10
48.7
  20
1618.5
  0
VERTEX
  8
MMIC_Trace
  10
48.7
  20
1549.9
  0
VERTEX
  8
MMIC_Trace
  10
48.749
  20
1548.92
  0
VERTEX
  8
MMIC_Trace
  10
48.893
  20
1547.95
  0
VERTEX
  8
MMIC_Trace
  10
49.131
  20
1546.998
  0
VERTEX
  8
MMIC_Trace
  10
49.462
  20
1546.074
  0
VERTEX
  8
MMIC_Trace
  10
49.881
  20
1545.187
  0
VERTEX
  8
MMIC_Trace
  10
50.386
  20
1544.345
  0
VERTEX
  8
MMIC_Trace
  10
50.97
  20
1543.557
  0
VERTEX
  8
MMIC_Trace
  10
51.629
  20
1542.829
  0
VERTEX
  8
MMIC_Trace
  10
52.357
  20
1542.17
  0
VERTEX
  8
MMIC_Trace
  10
53.145
  20
1541.586
  0
VERTEX
  8
MMIC_Trace
  10
53.987
  20
1541.081
  0
VERTEX
  8
MMIC_Trace
  10
54.874
  20
1540.662
  0
VERTEX
  8
MMIC_Trace
  10
55.798
  20
1540.331
  0
VERTEX
  8
MMIC_Trace
  10
56.75
  20
1540.093
  0
VERTEX
  8
MMIC_Trace
  10
57.72
  20
1539.949
  0
VERTEX
  8
MMIC_Trace
  10
58.7
  20
1539.9
  0
VERTEX
  8
MMIC_Trace
  10
131.3
  20
1539.9
  0
VERTEX
  8
MMIC_Trace
  10
132.28
  20
1539.949
  0
VERTEX
  8
MMIC_Trace
  10
133.25
  20
1540.093
  0
VERTEX
  8
MMIC_Trace
  10
134.202
  20
1540.331
  0
VERTEX
  8
MMIC_Trace
  10
135.126
  20
1540.662
  0
VERTEX
  8
MMIC_Trace
  10
136.013
  20
1541.081
  0
VERTEX
  8
MMIC_Trace
  10
136.855
  20
1541.586
  0
VERTEX
  8
MMIC_Trace
  10
137.643
  20
1542.17
  0
VERTEX
  8
MMIC_Trace
  10
138.371
  20
1542.829
  0
VERTEX
  8
MMIC_Trace
  10
139.03
  20
1543.557
  0
VERTEX
  8
MMIC_Trace
  10
139.614
  20
1544.345
  0
VERTEX
  8
MMIC_Trace
  10
140.119
  20
1545.187
  0
VERTEX
  8
MMIC_Trace
  10
140.538
  20
1546.074
  0
VERTEX
  8
MMIC_Trace
  10
140.869
  20
1546.998
  0
VERTEX
  8
MMIC_Trace
  10
141.107
  20
1547.95
  0
VERTEX
  8
MMIC_Trace
  10
141.251
  20
1548.92
  0
VERTEX
  8
MMIC_Trace
  10
141.3
  20
1549.9
  0
VERTEX
  8
MMIC_Trace
  10
141.3
  20
1599.5
  0
VERTEX
  8
MMIC_Trace
  10
141.251
  20
1600.481
  0
VERTEX
  8
MMIC_Trace
  10
141.107
  20
1601.451
  0
VERTEX
  8
MMIC_Trace
  10
140.869
  20
1602.403
  0
VERTEX
  8
MMIC_Trace
  10
140.538
  20
1603.327
  0
VERTEX
  8
MMIC_Trace
  10
140.119
  20
1604.214
  0
VERTEX
  8
MMIC_Trace
  10
139.614
  20
1605.056
  0
VERTEX
  8
MMIC_Trace
  10
139.03
  20
1605.844
  0
VERTEX
  8
MMIC_Trace
  10
138.371
  20
1606.572
  0
VERTEX
  8
MMIC_Trace
  10
137.643
  20
1607.231
  0
VERTEX
  8
MMIC_Trace
  10
136.855
  20
1607.815
  0
VERTEX
  8
MMIC_Trace
  10
136.013
  20
1608.32
  0
VERTEX
  8
MMIC_Trace
  10
135.126
  20
1608.739
  0
VERTEX
  8
MMIC_Trace
  10
134.202
  20
1609.07
  0
VERTEX
  8
MMIC_Trace
  10
133.25
  20
1609.308
  0
VERTEX
  8
MMIC_Trace
  10
132.28
  20
1609.452
  0
VERTEX
  8
MMIC_Trace
  10
131.3
  20
1609.5
  0
VERTEX
  8
MMIC_Trace
  10
119
  20
1609.5
  0
VERTEX
  8
MMIC_Trace
  10
119
  20
1618.5
  0
VERTEX
  8
MMIC_Trace
  10
129
  20
1618.5
  0
VERTEX
  8
MMIC_Trace
  10
129.98
  20
1618.548
  0
VERTEX
  8
MMIC_Trace
  10
130.951
  20
1618.692
  0
VERTEX
  8
MMIC_Trace
  10
131.903
  20
1618.931
  0
VERTEX
  8
MMIC_Trace
  10
132.827
  20
1619.261
  0
VERTEX
  8
MMIC_Trace
  10
133.714
  20
1619.681
  0
VERTEX
  8
MMIC_Trace
  10
134.556
  20
1620.185
  0
VERTEX
  8
MMIC_Trace
  10
135.344
  20
1620.77
  0
VERTEX
  8
MMIC_Trace
  10
136.071
  20
1621.429
  0
VERTEX
  8
MMIC_Trace
  10
136.73
  20
1622.156
  0
VERTEX
  8
MMIC_Trace
  10
137.315
  20
1622.944
  0
VERTEX
  8
MMIC_Trace
  10
137.819
  20
1623.786
  0
VERTEX
  8
MMIC_Trace
  10
138.239
  20
1624.673
  0
VERTEX
  8
MMIC_Trace
  10
138.569
  20
1625.597
  0
VERTEX
  8
MMIC_Trace
  10
138.808
  20
1626.549
  0
VERTEX
  8
MMIC_Trace
  10
138.952
  20
1627.52
  0
VERTEX
  8
MMIC_Trace
  10
139
  20
1628.5
  0
VERTEX
  8
MMIC_Trace
  10
139
  20
1683.5
  0
VERTEX
  8
MMIC_Trace
  10
138.952
  20
1684.48
  0
VERTEX
  8
MMIC_Trace
  10
138.808
  20
1685.451
  0
VERTEX
  8
MMIC_Trace
  10
138.569
  20
1686.403
  0
VERTEX
  8
MMIC_Trace
  10
138.239
  20
1687.327
  0
VERTEX
  8
MMIC_Trace
  10
137.819
  20
1688.214
  0
VERTEX
  8
MMIC_Trace
  10
137.315
  20
1689.056
  0
VERTEX
  8
MMIC_Trace
  10
136.73
  20
1689.844
  0
VERTEX
  8
MMIC_Trace
  10
136.071
  20
1690.571
  0
VERTEX
  8
MMIC_Trace
  10
135.344
  20
1691.23
  0
VERTEX
  8
MMIC_Trace
  10
134.556
  20
1691.815
  0
VERTEX
  8
MMIC_Trace
  10
133.714
  20
1692.319
  0
VERTEX
  8
MMIC_Trace
  10
132.827
  20
1692.739
  0
VERTEX
  8
MMIC_Trace
  10
131.903
  20
1693.069
  0
VERTEX
  8
MMIC_Trace
  10
130.951
  20
1693.308
  0
VERTEX
  8
MMIC_Trace
  10
129.98
  20
1693.452
  0
VERTEX
  8
MMIC_Trace
  10
129
  20
1693.5
  0
VERTEX
  8
MMIC_Trace
  10
48
  20
1693.5
  0
VERTEX
  8
MMIC_Trace
  10
47.02
  20
1693.452
  0
VERTEX
  8
MMIC_Trace
  10
46.049
  20
1693.308
  0
VERTEX
  8
MMIC_Trace
  10
45.097
  20
1693.069
  0
VERTEX
  8
MMIC_Trace
  10
44.173
  20
1692.739
  0
VERTEX
  8
MMIC_Trace
  10
43.286
  20
1692.319
  0
VERTEX
  8
MMIC_Trace
  10
42.444
  20
1691.815
  0
VERTEX
  8
MMIC_Trace
  10
41.656
  20
1691.23
  0
VERTEX
  8
MMIC_Trace
  10
40.929
  20
1690.571
  0
VERTEX
  8
MMIC_Trace
  10
40.27
  20
1689.844
  0
VERTEX
  8
MMIC_Trace
  10
39.685
  20
1689.056
  0
VERTEX
  8
MMIC_Trace
  10
39.181
  20
1688.214
  0
VERTEX
  8
MMIC_Trace
  10
38.761
  20
1687.327
  0
VERTEX
  8
MMIC_Trace
  10
38.431
  20
1686.403
  0
VERTEX
  8
MMIC_Trace
  10
38.192
  20
1685.451
  0
VERTEX
  8
MMIC_Trace
  10
38.048
  20
1684.48
  0
VERTEX
  8
MMIC_Trace
  10
38
  20
1683.5
  0
VERTEX
  8
MMIC_Trace
  10
38
  20
1628.5
  0
VERTEX
  8
MMIC_Trace
  10
38.048
  20
1627.52
  0
VERTEX
  8
MMIC_Trace
  10
38.192
  20
1626.549
  0
VERTEX
  8
MMIC_Trace
  10
38.431
  20
1625.597
  0
VERTEX
  8
MMIC_Trace
  10
38.761
  20
1624.673
  0
VERTEX
  8
MMIC_Trace
  10
39.181
  20
1623.786
  0
VERTEX
  8
MMIC_Trace
  10
39.685
  20
1622.944
  0
VERTEX
  8
MMIC_Trace
  10
40.27
  20
1622.156
  0
VERTEX
  8
MMIC_Trace
  10
40.929
  20
1621.429
  0
VERTEX
  8
MMIC_Trace
  10
41.656
  20
1620.77
  0
VERTEX
  8
MMIC_Trace
  10
42.444
  20
1620.185
  0
VERTEX
  8
MMIC_Trace
  10
43.286
  20
1619.681
  0
VERTEX
  8
MMIC_Trace
  10
44.173
  20
1619.261
  0
VERTEX
  8
MMIC_Trace
  10
45.097
  20
1618.931
  0
VERTEX
  8
MMIC_Trace
  10
46.049
  20
1618.692
  0
VERTEX
  8
MMIC_Trace
  10
47.02
  20
1618.548
  0
SEQEND
  0
POLYLINE
  8
MMIC_Trace
  70
1
  66
1
  0
VERTEX
  8
MMIC_Trace
  10
38.431
  20
45.097
  0
VERTEX
  8
MMIC_Trace
  10
38.761
  20
44.173
  0
VERTEX
  8
MMIC_Trace
  10
39.181
  20
43.286
  0
VERTEX
  8
MMIC_Trace
  10
39.685
  20
42.444
  0
VERTEX
  8
MMIC_Trace
  10
40.27
  20
41.656
  0
VERTEX
  8
MMIC_Trace
  10
40.929
  20
40.929
  0
VERTEX
  8
MMIC_Trace
  10
41.656
  20
40.27
  0
VERTEX
  8
MMIC_Trace
  10
42.444
  20
39.685
  0
VERTEX
  8
MMIC_Trace
  10
43.286
  20
39.181
  0
VERTEX
  8
MMIC_Trace
  10
44.173
  20
38.761
  0
VERTEX
  8
MMIC_Trace
  10
45.097
  20
38.431
  0
VERTEX
  8
MMIC_Trace
  10
46.049
  20
38.192
  0
VERTEX
  8
MMIC_Trace
  10
47.02
  20
38.048
  0
VERTEX
  8
MMIC_Trace
  10
48
  20
38
  0
VERTEX
  8
MMIC_Trace
  10
129
  20
38
  0
VERTEX
  8
MMIC_Trace
  10
129.98
  20
38.048
  0
VERTEX
  8
MMIC_Trace
  10
130.951
  20
38.192
  0
VERTEX
  8
MMIC_Trace
  10
131.903
  20
38.431
  0
VERTEX
  8
MMIC_Trace
  10
132.827
  20
38.761
  0
VERTEX
  8
MMIC_Trace
  10
133.714
  20
39.181
  0
VERTEX
  8
MMIC_Trace
  10
134.556
  20
39.685
  0
VERTEX
  8
MMIC_Trace
  10
135.344
  20
40.27
  0
VERTEX
  8
MMIC_Trace
  10
136.071
  20
40.929
  0
VERTEX
  8
MMIC_Trace
  10
136.73
  20
41.656
  0
VERTEX
  8
MMIC_Trace
  10
137.315
  20
42.444
  0
VERTEX
  8
MMIC_Trace
  10
137.819
  20
43.286
  0
VERTEX
  8
MMIC_Trace
  10
138.239
  20
44.173
  0
VERTEX
  8
MMIC_Trace
  10
138.569
  20
45.097
  0
VERTEX
  8
MMIC_Trace
  10
138.808
  20
46.049
  0
VERTEX
  8
MMIC_Trace
  10
138.952
  20
47.02
  0
VERTEX
  8
MMIC_Trace
  10
139
  20
48
  0
VERTEX
  8
MMIC_Trace
  10
139
  20
58.9
  0
VERTEX
  8
MMIC_Trace
  10
366
  20
58.9
  0
VERTEX
  8
MMIC_Trace
  10
366
  20
53
  0
VERTEX
  8
MMIC_Trace
  10
435.6
  20
53
  0
VERTEX
  8
MMIC_Trace
  10
435.6
  20
260.6
  0
VERTEX
  8
MMIC_Trace
  10
366
  20
260.6
  0
VERTEX
  8
MMIC_Trace
  10
366
  20
218.9
  0
VERTEX
  8
MMIC_Trace
  10
139
  20
218.9
  0
VERTEX
  8
MMIC_Trace
  10
139
  20
228
  0
VERTEX
  8
MMIC_Trace
  10
138.952
  20
228.98
  0
VERTEX
  8
MMIC_Trace
  10
138.808
  20
229.951
  0
VERTEX
  8
MMIC_Trace
  10
138.569
  20
230.903
  0
VERTEX
  8
MMIC_Trace
  10
138.239
  20
231.827
  0
VERTEX
  8
MMIC_Trace
  10
137.819
  20
232.714
  0
VERTEX
  8
MMIC_Trace
  10
137.315
  20
233.556
  0
VERTEX
  8
MMIC_Trace
  10
136.73
  20
234.344
  0
VERTEX
  8
MMIC_Trace
  10
136.071
  20
235.071
  0
VERTEX
  8
MMIC_Trace
  10
135.344
  20
235.73
  0
VERTEX
  8
MMIC_Trace
  10
134.556
  20
236.315
  0
VERTEX
  8
MMIC_Trace
  10
133.714
  20
236.819
  0
VERTEX
  8
MMIC_Trace
  10
132.827
  20
237.239
  0
VERTEX
  8
MMIC_Trace
  10
131.903
  20
237.569
  0
VERTEX
  8
MMIC_Trace
  10
130.951
  20
237.808
  0
VERTEX
  8
MMIC_Trace
  10
129.98
  20
237.952
  0
VERTEX
  8
MMIC_Trace
  10
129
  20
238
  0
VERTEX
  8
MMIC_Trace
  10
48
  20
238
  0
VERTEX
  8
MMIC_Trace
  10
47.02
  20
237.952
  0
VERTEX
  8
MMIC_Trace
  10
46.049
  20
237.808
  0
VERTEX
  8
MMIC_Trace
  10
45.097
  20
237.569
  0
VERTEX
  8
MMIC_Trace
  10
44.173
  20
237.239
  0
VERTEX
  8
MMIC_Trace
  10
43.286
  20
236.819
  0
VERTEX
  8
MMIC_Trace
  10
42.444
  20
236.315
  0
VERTEX
  8
MMIC_Trace
  10
41.656
  20
235.73
  0
VERTEX
  8
MMIC_Trace
  10
40.929
  20
235.071
  0
VERTEX
  8
MMIC_Trace
  10
40.27
  20
234.344
  0
VERTEX
  8
MMIC_Trace
  10
39.685
  20
233.556
  0
VERTEX
  8
MMIC_Trace
  10
39.181
  20
232.714
  0
VERTEX
  8
MMIC_Trace
  10
38.761
  20
231.827
  0
VERTEX
  8
MMIC_Trace
  10
38.431
  20
230.903
  0
VERTEX
  8
MMIC_Trace
  10
38.192
  20
229.951
  0
VERTEX
  8
MMIC_Trace
  10
38.048
  20
228.98
  0
VERTEX
  8
MMIC_Trace
  10
38
  20
228
  0
VERTEX
  8
MMIC_Trace
  10
38
  20
48
  0
VERTEX
  8
MMIC_Trace
  10
38.048
  20
47.02
  0
VERTEX
  8
MMIC_Trace
  10
38.192
  20
46.049
  0
SEQEND
  0
POLYLINE
  8
MMIC_Trace
  70
1
  66
1
  0
VERTEX
  8
MMIC_Trace
  10
1861.431
  20
2269.097
  0
VERTEX
  8
MMIC_Trace
  10
1861.761
  20
2268.173
  0
VERTEX
  8
MMIC_Trace
  10
1862.181
  20
2267.286
  0
VERTEX
  8
MMIC_Trace
  10
1862.685
  20
2266.444
  0
VERTEX
  8
MMIC_Trace
  10
1863.27
  20
2265.656
  0
VERTEX
  8
MMIC_Trace
  10
1863.929
  20
2264.929
  0
VERTEX
  8
MMIC_Trace
  10
1864.656
  20
2264.27
  0
VERTEX
  8
MMIC_Trace
  10
1865.444
  20
2263.685
  0
VERTEX
  8
MMIC_Trace
  10
1866.286
  20
2263.181
  0
VERTEX
  8
MMIC_Trace
  10
1867.173
  20
2262.761
  0
VERTEX
  8
MMIC_Trace
  10
1868.097
  20
2262.431
  0
VERTEX
  8
MMIC_Trace
  10
1869.049
  20
2262.192
  0
VERTEX
  8
MMIC_Trace
  10
1870.02
  20
2262.048
  0
VERTEX
  8
MMIC_Trace
  10
1871
  20
2262
  0
VERTEX
  8
MMIC_Trace
  10
1952
  20
2262
  0
VERTEX
  8
MMIC_Trace
  10
1952.98
  20
2262.048
  0
VERTEX
  8
MMIC_Trace
  10
1953.951
  20
2262.192
  0
VERTEX
  8
MMIC_Trace
  10
1954.903
  20
2262.431
  0
VERTEX
  8
MMIC_Trace
  10
1955.827
  20
2262.761
  0
VERTEX
  8
MMIC_Trace
  10
1956.714
  20
2263.181
  0
VERTEX
  8
MMIC_Trace
  10
1957.556
  20
2263.685
  0
VERTEX
  8
MMIC_Trace
  10
1958.344
  20
2264.27
  0
VERTEX
  8
MMIC_Trace
  10
1959.071
  20
2264.929
  0
VERTEX
  8
MMIC_Trace
  10
1959.73
  20
2265.656
  0
VERTEX
  8
MMIC_Trace
  10
1960.315
  20
2266.444
  0
VERTEX
  8
MMIC_Trace
  10
1960.819
  20
2267.286
  0
VERTEX
  8
MMIC_Trace
  10
1961.239
  20
2268.173
  0
VERTEX
  8
MMIC_Trace
  10
1961.569
  20
2269.097
  0
VERTEX
  8
MMIC_Trace
  10
1961.808
  20
2270.049
  0
VERTEX
  8
MMIC_Trace
  10
1961.952
  20
2271.02
  0
VERTEX
  8
MMIC_Trace
  10
1962
  20
2272
  0
VERTEX
  8
MMIC_Trace
  10
1962
  20
2452
  0
VERTEX
  8
MMIC_Trace
  10
1961.952
  20
2452.98
  0
VERTEX
  8
MMIC_Trace
  10
1961.808
  20
2453.951
  0
VERTEX
  8
MMIC_Trace
  10
1961.569
  20
2454.903
  0
VERTEX
  8
MMIC_Trace
  10
1961.239
  20
2455.827
  0
VERTEX
  8
MMIC_Trace
  10
1960.819
  20
2456.714
  0
VERTEX
  8
MMIC_Trace
  10
1960.315
  20
2457.556
  0
VERTEX
  8
MMIC_Trace
  10
1959.73
  20
2458.344
  0
VERTEX
  8
MMIC_Trace
  10
1959.071
  20
2459.071
  0
VERTEX
  8
MMIC_Trace
  10
1958.344
  20
2459.73
  0
VERTEX
  8
MMIC_Trace
  10
1957.556
  20
2460.315
  0
VERTEX
  8
MMIC_Trace
  10
1956.714
  20
2460.819
  0
VERTEX
  8
MMIC_Trace
  10
1955.827
  20
2461.239
  0
VERTEX
  8
MMIC_Trace
  10
1954.903
  20
2461.569
  0
VERTEX
  8
MMIC_Trace
  10
1953.951
  20
2461.808
  0
VERTEX
  8
MMIC_Trace
  10
1952.98
  20
2461.952
  0
VERTEX
  8
MMIC_Trace
  10
1952
  20
2462
  0
VERTEX
  8
MMIC_Trace
  10
1871
  20
2462
  0
VERTEX
  8
MMIC_Trace
  10
1870.02
  20
2461.952
  0
VERTEX
  8
MMIC_Trace
  10
1869.049
  20
2461.808
  0
VERTEX
  8
MMIC_Trace
  10
1868.097
  20
2461.569
  0
VERTEX
  8
MMIC_Trace
  10
1867.173
  20
2461.239
  0
VERTEX
  8
MMIC_Trace
  10
1866.286
  20
2460.819
  0
VERTEX
  8
MMIC_Trace
  10
1865.444
  20
2460.315
  0
VERTEX
  8
MMIC_Trace
  10
1864.656
  20
2459.73
  0
VERTEX
  8
MMIC_Trace
  10
1863.929
  20
2459.071
  0
VERTEX
  8
MMIC_Trace
  10
1863.27
  20
2458.344
  0
VERTEX
  8
MMIC_Trace
  10
1862.685
  20
2457.556
  0
VERTEX
  8
MMIC_Trace
  10
1862.181
  20
2456.714
  0
VERTEX
  8
MMIC_Trace
  10
1861.761
  20
2455.827
  0
VERTEX
  8
MMIC_Trace
  10
1861.431
  20
2454.903
  0
VERTEX
  8
MMIC_Trace
  10
1861.192
  20
2453.951
  0
VERTEX
  8
MMIC_Trace
  10
1861.048
  20
2452.98
  0
VERTEX
  8
MMIC_Trace
  10
1861
  20
2452
  0
VERTEX
  8
MMIC_Trace
  10
1861
  20
2272
  0
VERTEX
  8
MMIC_Trace
  10
1861.048
  20
2271.02
  0
VERTEX
  8
MMIC_Trace
  10
1861.192
  20
2270.049
  0
SEQEND
  0
POLYLINE
  8
MMIC_Trace
  70
1
  66
1
  0
VERTEX
  8
MMIC_Trace
  10
1861.431
  20
45.097
  0
VERTEX
  8
MMIC_Trace
  10
1861.761
  20
44.173
  0
VERTEX
  8
MMIC_Trace
  10
1862.181
  20
43.286
  0
VERTEX
  8
MMIC_Trace
  10
1862.685
  20
42.444
  0
VERTEX
  8
MMIC_Trace
  10
1863.27
  20
41.656
  0
VERTEX
  8
MMIC_Trace
  10
1863.929
  20
40.929
  0
VERTEX
  8
MMIC_Trace
  10
1864.656
  20
40.27
  0
VERTEX
  8
MMIC_Trace
  10
1865.444
  20
39.685
  0
VERTEX
  8
MMIC_Trace
  10
1866.286
  20
39.181
  0
VERTEX
  8
MMIC_Trace
  10
1867.173
  20
38.761
  0
VERTEX
  8
MMIC_Trace
  10
1868.097
  20
38.431
  0
VERTEX
  8
MMIC_Trace
  10
1869.049
  20
38.192
  0
VERTEX
  8
MMIC_Trace
  10
1870.02
  20
38.048
  0
VERTEX
  8
MMIC_Trace
  10
1871
  20
38
  0
VERTEX
  8
MMIC_Trace
  10
1952
  20
38
  0
VERTEX
  8
MMIC_Trace
  10
1952.98
  20
38.048
  0
VERTEX
  8
MMIC_Trace
  10
1953.951
  20
38.192
  0
VERTEX
  8
MMIC_Trace
  10
1954.903
  20
38.431
  0
VERTEX
  8
MMIC_Trace
  10
1955.827
  20
38.761
  0
VERTEX
  8
MMIC_Trace
  10
1956.714
  20
39.181
  0
VERTEX
  8
MMIC_Trace
  10
1957.556
  20
39.685
  0
VERTEX
  8
MMIC_Trace
  10
1958.344
  20
40.27
  0
VERTEX
  8
MMIC_Trace
  10
1959.071
  20
40.929
  0
VERTEX
  8
MMIC_Trace
  10
1959.73
  20
41.656
  0
VERTEX
  8
MMIC_Trace
  10
1960.315
  20
42.444
  0
VERTEX
  8
MMIC_Trace
  10
1960.819
  20
43.286
  0
VERTEX
  8
MMIC_Trace
  10
1961.239
  20
44.173
  0
VERTEX
  8
MMIC_Trace
  10
1961.569
  20
45.097
  0
VERTEX
  8
MMIC_Trace
  10
1961.808
  20
46.049
  0
VERTEX
  8
MMIC_Trace
  10
1961.952
  20
47.02
  0
VERTEX
  8
MMIC_Trace
  10
1962
  20
48
  0
VERTEX
  8
MMIC_Trace
  10
1962
  20
228
  0
VERTEX
  8
MMIC_Trace
  10
1961.952
  20
228.98
  0
VERTEX
  8
MMIC_Trace
  10
1961.808
  20
229.951
  0
VERTEX
  8
MMIC_Trace
  10
1961.569
  20
230.903
  0
VERTEX
  8
MMIC_Trace
  10
1961.239
  20
231.827
  0
VERTEX
  8
MMIC_Trace
  10
1960.819
  20
232.714
  0
VERTEX
  8
MMIC_Trace
  10
1960.315
  20
233.556
  0
VERTEX
  8
MMIC_Trace
  10
1959.73
  20
234.344
  0
VERTEX
  8
MMIC_Trace
  10
1959.071
  20
235.071
  0
VERTEX
  8
MMIC_Trace
  10
1958.344
  20
235.73
  0
VERTEX
  8
MMIC_Trace
  10
1957.556
  20
236.315
  0
VERTEX
  8
MMIC_Trace
  10
1956.714
  20
236.819
  0
VERTEX
  8
MMIC_Trace
  10
1955.827
  20
237.239
  0
VERTEX
  8
MMIC_Trace
  10
1954.903
  20
237.569
  0
VERTEX
  8
MMIC_Trace
  10
1953.951
  20
237.808
  0
VERTEX
  8
MMIC_Trace
  10
1952.98
  20
237.952
  0
VERTEX
  8
MMIC_Trace
  10
1952
  20
238
  0
VERTEX
  8
MMIC_Trace
  10
1871
  20
238
  0
VERTEX
  8
MMIC_Trace
  10
1870.02
  20
237.952
  0
VERTEX
  8
MMIC_Trace
  10
1869.049
  20
237.808
  0
VERTEX
  8
MMIC_Trace
  10
1868.097
  20
237.569
  0
VERTEX
  8
MMIC_Trace
  10
1867.173
  20
237.239
  0
VERTEX
  8
MMIC_Trace
  10
1866.286
  20
236.819
  0
VERTEX
  8
MMIC_Trace
  10
1865.444
  20
236.315
  0
VERTEX
  8
MMIC_Trace
  10
1864.656
  20
235.73
  0
VERTEX
  8
MMIC_Trace
  10
1863.929
  20
235.071
  0
VERTEX
  8
MMIC_Trace
  10
1863.27
  20
234.344
  0
VERTEX
  8
MMIC_Trace
  10
1862.685
  20
233.556
  0
VERTEX
  8
MMIC_Trace
  10
1862.181
  20
232.714
  0
VERTEX
  8
MMIC_Trace
  10
1861.761
  20
231.827
  0
VERTEX
  8
MMIC_Trace
  10
1861.431
  20
230.903
  0
VERTEX
  8
MMIC_Trace
  10
1861.192
  20
229.951
  0
VERTEX
  8
MMIC_Trace
  10
1861.048
  20
228.98
  0
VERTEX
  8
MMIC_Trace
  10
1861
  20
228
  0
VERTEX
  8
MMIC_Trace
  10
1861
  20
48
  0
VERTEX
  8
MMIC_Trace
  10
1861.048
  20
47.02
  0
VERTEX
  8
MMIC_Trace
  10
1861.192
  20
46.049
  0
SEQEND
  0
POLYLINE
  8
MMIC_Trace
  70
1
  66
1
  0
VERTEX
  8
MMIC_Trace
  10
1951.3
  20
2174.5
  0
VERTEX
  8
MMIC_Trace
  10
1952
  20
2174.5
  0
VERTEX
  8
MMIC_Trace
  10
1952.98
  20
2174.548
  0
VERTEX
  8
MMIC_Trace
  10
1953.951
  20
2174.692
  0
VERTEX
  8
MMIC_Trace
  10
1954.903
  20
2174.931
  0
VERTEX
  8
MMIC_Trace
  10
1955.827
  20
2175.261
  0
VERTEX
  8
MMIC_Trace
  10
1956.714
  20
2175.681
  0
VERTEX
  8
MMIC_Trace
  10
1957.556
  20
2176.185
  0
VERTEX
  8
MMIC_Trace
  10
1958.344
  20
2176.77
  0
VERTEX
  8
MMIC_Trace
  10
1959.071
  20
2177.429
  0
VERTEX
  8
MMIC_Trace
  10
1959.73
  20
2178.156
  0
VERTEX
  8
MMIC_Trace
  10
1960.315
  20
2178.944
  0
VERTEX
  8
MMIC_Trace
  10
1960.819
  20
2179.786
  0
VERTEX
  8
MMIC_Trace
  10
1961.239
  20
2180.673
  0
VERTEX
  8
MMIC_Trace
  10
1961.569
  20
2181.597
  0
VERTEX
  8
MMIC_Trace
  10
1961.808
  20
2182.549
  0
VERTEX
  8
MMIC_Trace
  10
1961.952
  20
2183.52
  0
VERTEX
  8
MMIC_Trace
  10
1962
  20
2184.5
  0
VERTEX
  8
MMIC_Trace
  10
1962
  20
2239.5
  0
VERTEX
  8
MMIC_Trace
  10
1961.952
  20
2240.48
  0
VERTEX
  8
MMIC_Trace
  10
1961.808
  20
2241.451
  0
VERTEX
  8
MMIC_Trace
  10
1961.569
  20
2242.403
  0
VERTEX
  8
MMIC_Trace
  10
1961.239
  20
2243.327
  0
VERTEX
  8
MMIC_Trace
  10
1960.819
  20
2244.214
  0
VERTEX
  8
MMIC_Trace
  10
1960.315
  20
2245.056
  0
VERTEX
  8
MMIC_Trace
  10
1959.73
  20
2245.844
  0
VERTEX
  8
MMIC_Trace
  10
1959.071
  20
2246.571
  0
VERTEX
  8
MMIC_Trace
  10
1958.344
  20
2247.23
  0
VERTEX
  8
MMIC_Trace
  10
1957.556
  20
2247.815
  0
VERTEX
  8
MMIC_Trace
  10
1956.714
  20
2248.319
  0
VERTEX
  8
MMIC_Trace
  10
1955.827
  20
2248.739
  0
VERTEX
  8
MMIC_Trace
  10
1954.903
  20
2249.069
  0
VERTEX
  8
MMIC_Trace
  10
1953.951
  20
2249.308
  0
VERTEX
  8
MMIC_Trace
  10
1952.98
  20
2249.452
  0
VERTEX
  8
MMIC_Trace
  10
1952
  20
2249.5
  0
VERTEX
  8
MMIC_Trace
  10
1871
  20
2249.5
  0
VERTEX
  8
MMIC_Trace
  10
1870.02
  20
2249.452
  0
VERTEX
  8
MMIC_Trace
  10
1869.049
  20
2249.308
  0
VERTEX
  8
MMIC_Trace
  10
1868.097
  20
2249.069
  0
VERTEX
  8
MMIC_Trace
  10
1867.173
  20
2248.739
  0
VERTEX
  8
MMIC_Trace
  10
1866.286
  20
2248.319
  0
VERTEX
  8
MMIC_Trace
  10
1865.444
  20
2247.815
  0
VERTEX
  8
MMIC_Trace
  10
1864.656
  20
2247.23
  0
VERTEX
  8
MMIC_Trace
  10
1863.929
  20
2246.571
  0
VERTEX
  8
MMIC_Trace
  10
1863.27
  20
2245.844
  0
VERTEX
  8
MMIC_Trace
  10
1862.685
  20
2245.056
  0
VERTEX
  8
MMIC_Trace
  10
1862.181
  20
2244.214
  0
VERTEX
  8
MMIC_Trace
  10
1861.761
  20
2243.327
  0
VERTEX
  8
MMIC_Trace
  10
1861.431
  20
2242.403
  0
VERTEX
  8
MMIC_Trace
  10
1861.192
  20
2241.451
  0
VERTEX
  8
MMIC_Trace
  10
1861.048
  20
2240.48
  0
VERTEX
  8
MMIC_Trace
  10
1861
  20
2239.5
  0
VERTEX
  8
MMIC_Trace
  10
1861
  20
2184.5
  0
VERTEX
  8
MMIC_Trace
  10
1861.048
  20
2183.52
  0
VERTEX
  8
MMIC_Trace
  10
1861.192
  20
2182.549
  0
VERTEX
  8
MMIC_Trace
  10
1861.431
  20
2181.597
  0
VERTEX
  8
MMIC_Trace
  10
1861.761
  20
2180.673
  0
VERTEX
  8
MMIC_Trace
  10
1862.181
  20
2179.786
  0
VERTEX
  8
MMIC_Trace
  10
1862.685
  20
2178.944
  0
VERTEX
  8
MMIC_Trace
  10
1863.27
  20
2178.156
  0
VERTEX
  8
MMIC_Trace
  10
1863.929
  20
2177.429
  0
VERTEX
  8
MMIC_Trace
  10
1864.656
  20
2176.77
  0
VERTEX
  8
MMIC_Trace
  10
1865.444
  20
2176.185
  0
VERTEX
  8
MMIC_Trace
  10
1866.286
  20
2175.681
  0
VERTEX
  8
MMIC_Trace
  10
1867.173
  20
2175.261
  0
VERTEX
  8
MMIC_Trace
  10
1868.097
  20
2174.931
  0
VERTEX
  8
MMIC_Trace
  10
1869.049
  20
2174.692
  0
VERTEX
  8
MMIC_Trace
  10
1870.02
  20
2174.548
  0
VERTEX
  8
MMIC_Trace
  10
1871
  20
2174.5
  0
VERTEX
  8
MMIC_Trace
  10
1881
  20
2174.5
  0
VERTEX
  8
MMIC_Trace
  10
1881
  20
2165.5
  0
VERTEX
  8
MMIC_Trace
  10
1868.7
  20
2165.5
  0
VERTEX
  8
MMIC_Trace
  10
1867.72
  20
2165.452
  0
VERTEX
  8
MMIC_Trace
  10
1866.75
  20
2165.308
  0
VERTEX
  8
MMIC_Trace
  10
1865.798
  20
2165.07
  0
VERTEX
  8
MMIC_Trace
  10
1864.874
  20
2164.739
  0
VERTEX
  8
MMIC_Trace
  10
1863.987
  20
2164.32
  0
VERTEX
  8
MMIC_Trace
  10
1863.145
  20
2163.815
  0
VERTEX
  8
MMIC_Trace
  10
1862.357
  20
2163.231
  0
VERTEX
  8
MMIC_Trace
  10
1861.629
  20
2162.572
  0
VERTEX
  8
MMIC_Trace
  10
1860.97
  20
2161.844
  0
VERTEX
  8
MMIC_Trace
  10
1860.386
  20
2161.056
  0
VERTEX
  8
MMIC_Trace
  10
1859.881
  20
2160.214
  0
VERTEX
  8
MMIC_Trace
  10
1859.462
  20
2159.327
  0
VERTEX
  8
MMIC_Trace
  10
1859.131
  20
2158.403
  0
VERTEX
  8
MMIC_Trace
  10
1858.893
  20
2157.451
  0
VERTEX
  8
MMIC_Trace
  10
1858.749
  20
2156.481
  0
VERTEX
  8
MMIC_Trace
  10
1858.7
  20
2155.5
  0
VERTEX
  8
MMIC_Trace
  10
1858.7
  20
2105.9
  0
VERTEX
  8
MMIC_Trace
  10
1858.749
  20
2104.92
  0
VERTEX
  8
MMIC_Trace
  10
1858.893
  20
2103.95
  0
VERTEX
  8
MMIC_Trace
  10
1859.131
  20
2102.998
  0
VERTEX
  8
MMIC_Trace
  10
1859.462
  20
2102.074
  0
VERTEX
  8
MMIC_Trace
  10
1859.881
  20
2101.187
  0
VERTEX
  8
MMIC_Trace
  10
1860.386
  20
2100.345
  0
VERTEX
  8
MMIC_Trace
  10
1860.97
  20
2099.557
  0
VERTEX
  8
MMIC_Trace
  10
1861.629
  20
2098.829
  0
VERTEX
  8
MMIC_Trace
  10
1862.357
  20
2098.17
  0
VERTEX
  8
MMIC_Trace
  10
1863.145
  20
2097.586
  0
VERTEX
  8
MMIC_Trace
  10
1863.987
  20
2097.081
  0
VERTEX
  8
MMIC_Trace
  10
1864.874
  20
2096.662
  0
VERTEX
  8
MMIC_Trace
  10
1865.798
  20
2096.331
  0
VERTEX
  8
MMIC_Trace
  10
1866.75
  20
2096.093
  0
VERTEX
  8
MMIC_Trace
  10
1867.72
  20
2095.949
  0
VERTEX
  8
MMIC_Trace
  10
1868.7
  20
2095.9
  0
VERTEX
  8
MMIC_Trace
  10
1941.3
  20
2095.9
  0
VERTEX
  8
MMIC_Trace
  10
1942.28
  20
2095.949
  0
VERTEX
  8
MMIC_Trace
  10
1943.25
  20
2096.093
  0
VERTEX
  8
MMIC_Trace
  10
1944.202
  20
2096.331
  0
VERTEX
  8
MMIC_Trace
  10
1945.126
  20
2096.662
  0
VERTEX
  8
MMIC_Trace
  10
1946.013
  20
2097.081
  0
VERTEX
  8
MMIC_Trace
  10
1946.855
  20
2097.586
  0
VERTEX
  8
MMIC_Trace
  10
1947.643
  20
2098.17
  0
VERTEX
  8
MMIC_Trace
  10
1948.371
  20
2098.829
  0
VERTEX
  8
MMIC_Trace
  10
1949.03
  20
2099.557
  0
VERTEX
  8
MMIC_Trace
  10
1949.614
  20
2100.345
  0
VERTEX
  8
MMIC_Trace
  10
1950.119
  20
2101.187
  0
VERTEX
  8
MMIC_Trace
  10
1950.538
  20
2102.074
  0
VERTEX
  8
MMIC_Trace
  10
1950.869
  20
2102.998
  0
VERTEX
  8
MMIC_Trace
  10
1951.107
  20
2103.95
  0
VERTEX
  8
MMIC_Trace
  10
1951.251
  20
2104.92
  0
VERTEX
  8
MMIC_Trace
  10
1951.3
  20
2105.9
  0
SEQEND
  0
POLYLINE
  8
MMIC_Trace
  70
1
  66
1
  0
VERTEX
  8
MMIC_Trace
  10
38.431
  20
1713.097
  0
VERTEX
  8
MMIC_Trace
  10
38.761
  20
1712.173
  0
VERTEX
  8
MMIC_Trace
  10
39.181
  20
1711.286
  0
VERTEX
  8
MMIC_Trace
  10
39.685
  20
1710.444
  0
VERTEX
  8
MMIC_Trace
  10
40.27
  20
1709.656
  0
VERTEX
  8
MMIC_Trace
  10
40.929
  20
1708.929
  0
VERTEX
  8
MMIC_Trace
  10
41.656
  20
1708.27
  0
VERTEX
  8
MMIC_Trace
  10
42.444
  20
1707.685
  0
VERTEX
  8
MMIC_Trace
  10
43.286
  20
1707.181
  0
VERTEX
  8
MMIC_Trace
  10
44.173
  20
1706.761
  0
VERTEX
  8
MMIC_Trace
  10
45.097
  20
1706.431
  0
VERTEX
  8
MMIC_Trace
  10
46.049
  20
1706.192
  0
VERTEX
  8
MMIC_Trace
  10
47.02
  20
1706.048
  0
VERTEX
  8
MMIC_Trace
  10
48
  20
1706
  0
VERTEX
  8
MMIC_Trace
  10
129
  20
1706
  0
VERTEX
  8
MMIC_Trace
  10
129.98
  20
1706.048
  0
VERTEX
  8
MMIC_Trace
  10
130.951
  20
1706.192
  0
VERTEX
  8
MMIC_Trace
  10
131.903
  20
1706.431
  0
VERTEX
  8
MMIC_Trace
  10
132.827
  20
1706.761
  0
VERTEX
  8
MMIC_Trace
  10
133.714
  20
1707.181
  0
VERTEX
  8
MMIC_Trace
  10
134.556
  20
1707.685
  0
VERTEX
  8
MMIC_Trace
  10
135.344
  20
1708.27
  0
VERTEX
  8
MMIC_Trace
  10
136.071
  20
1708.929
  0
VERTEX
  8
MMIC_Trace
  10
136.73
  20
1709.656
  0
VERTEX
  8
MMIC_Trace
  10
137.315
  20
1710.444
  0
VERTEX
  8
MMIC_Trace
  10
137.819
  20
1711.286
  0
VERTEX
  8
MMIC_Trace
  10
138.239
  20
1712.173
  0
VERTEX
  8
MMIC_Trace
  10
138.569
  20
1713.097
  0
VERTEX
  8
MMIC_Trace
  10
138.808
  20
1714.049
  0
VERTEX
  8
MMIC_Trace
  10
138.952
  20
1715.02
  0
VERTEX
  8
MMIC_Trace
  10
139
  20
1716
  0
VERTEX
  8
MMIC_Trace
  10
139
  20
1896
  0
VERTEX
  8
MMIC_Trace
  10
138.952
  20
1896.98
  0
VERTEX
  8
MMIC_Trace
  10
138.808
  20
1897.951
  0
VERTEX
  8
MMIC_Trace
  10
138.569
  20
1898.903
  0
VERTEX
  8
MMIC_Trace
  10
138.239
  20
1899.827
  0
VERTEX
  8
MMIC_Trace
  10
137.819
  20
1900.714
  0
VERTEX
  8
MMIC_Trace
  10
137.315
  20
1901.556
  0
VERTEX
  8
MMIC_Trace
  10
136.73
  20
1902.344
  0
VERTEX
  8
MMIC_Trace
  10
136.071
  20
1903.071
  0
VERTEX
  8
MMIC_Trace
  10
135.344
  20
1903.73
  0
VERTEX
  8
MMIC_Trace
  10
134.556
  20
1904.315
  0
VERTEX
  8
MMIC_Trace
  10
133.714
  20
1904.819
  0
VERTEX
  8
MMIC_Trace
  10
132.827
  20
1905.239
  0
VERTEX
  8
MMIC_Trace
  10
131.903
  20
1905.569
  0
VERTEX
  8
MMIC_Trace
  10
130.951
  20
1905.808
  0
VERTEX
  8
MMIC_Trace
  10
129.98
  20
1905.952
  0
VERTEX
  8
MMIC_Trace
  10
129
  20
1906
  0
VERTEX
  8
MMIC_Trace
  10
48
  20
1906
  0
VERTEX
  8
MMIC_Trace
  10
47.02
  20
1905.952
  0
VERTEX
  8
MMIC_Trace
  10
46.049
  20
1905.808
  0
VERTEX
  8
MMIC_Trace
  10
45.097
  20
1905.569
  0
VERTEX
  8
MMIC_Trace
  10
44.173
  20
1905.239
  0
VERTEX
  8
MMIC_Trace
  10
43.286
  20
1904.819
  0
VERTEX
  8
MMIC_Trace
  10
42.444
  20
1904.315
  0
VERTEX
  8
MMIC_Trace
  10
41.656
  20
1903.73
  0
VERTEX
  8
MMIC_Trace
  10
40.929
  20
1903.071
  0
VERTEX
  8
MMIC_Trace
  10
40.27
  20
1902.344
  0
VERTEX
  8
MMIC_Trace
  10
39.685
  20
1901.556
  0
VERTEX
  8
MMIC_Trace
  10
39.181
  20
1900.714
  0
VERTEX
  8
MMIC_Trace
  10
38.761
  20
1899.827
  0
VERTEX
  8
MMIC_Trace
  10
38.431
  20
1898.903
  0
VERTEX
  8
MMIC_Trace
  10
38.192
  20
1897.951
  0
VERTEX
  8
MMIC_Trace
  10
38.048
  20
1896.98
  0
VERTEX
  8
MMIC_Trace
  10
38
  20
1896
  0
VERTEX
  8
MMIC_Trace
  10
38
  20
1716
  0
VERTEX
  8
MMIC_Trace
  10
38.048
  20
1715.02
  0
VERTEX
  8
MMIC_Trace
  10
38.192
  20
1714.049
  0
SEQEND
  0
POLYLINE
  8
MMIC_BondPad
  70
1
  66
1
  0
VERTEX
  8
MMIC_BondPad
  10
38.431
  20
45.097
  0
VERTEX
  8
MMIC_BondPad
  10
38.761
  20
44.173
  0
VERTEX
  8
MMIC_BondPad
  10
39.181
  20
43.286
  0
VERTEX
  8
MMIC_BondPad
  10
39.685
  20
42.444
  0
VERTEX
  8
MMIC_BondPad
  10
40.27
  20
41.656
  0
VERTEX
  8
MMIC_BondPad
  10
40.929
  20
40.929
  0
VERTEX
  8
MMIC_BondPad
  10
41.656
  20
40.27
  0
VERTEX
  8
MMIC_BondPad
  10
42.444
  20
39.685
  0
VERTEX
  8
MMIC_BondPad
  10
43.286
  20
39.181
  0
VERTEX
  8
MMIC_BondPad
  10
44.173
  20
38.761
  0
VERTEX
  8
MMIC_BondPad
  10
45.097
  20
38.431
  0
VERTEX
  8
MMIC_BondPad
  10
46.049
  20
38.192
  0
VERTEX
  8
MMIC_BondPad
  10
47.02
  20
38.048
  0
VERTEX
  8
MMIC_BondPad
  10
48
  20
38
  0
VERTEX
  8
MMIC_BondPad
  10
129
  20
38
  0
VERTEX
  8
MMIC_BondPad
  10
129.98
  20
38.048
  0
VERTEX
  8
MMIC_BondPad
  10
130.951
  20
38.192
  0
VERTEX
  8
MMIC_BondPad
  10
131.903
  20
38.431
  0
VERTEX
  8
MMIC_BondPad
  10
132.827
  20
38.761
  0
VERTEX
  8
MMIC_BondPad
  10
133.714
  20
39.181
  0
VERTEX
  8
MMIC_BondPad
  10
134.556
  20
39.685
  0
VERTEX
  8
MMIC_BondPad
  10
135.344
  20
40.27
  0
VERTEX
  8
MMIC_BondPad
  10
136.071
  20
40.929
  0
VERTEX
  8
MMIC_BondPad
  10
136.73
  20
41.656
  0
VERTEX
  8
MMIC_BondPad
  10
137.315
  20
42.444
  0
VERTEX
  8
MMIC_BondPad
  10
137.819
  20
43.286
  0
VERTEX
  8
MMIC_BondPad
  10
138.239
  20
44.173
  0
VERTEX
  8
MMIC_BondPad
  10
138.569
  20
45.097
  0
VERTEX
  8
MMIC_BondPad
  10
138.808
  20
46.049
  0
VERTEX
  8
MMIC_BondPad
  10
138.952
  20
47.02
  0
VERTEX
  8
MMIC_BondPad
  10
139
  20
48
  0
VERTEX
  8
MMIC_BondPad
  10
139
  20
228
  0
VERTEX
  8
MMIC_BondPad
  10
138.952
  20
228.98
  0
VERTEX
  8
MMIC_BondPad
  10
138.808
  20
229.951
  0
VERTEX
  8
MMIC_BondPad
  10
138.569
  20
230.903
  0
VERTEX
  8
MMIC_BondPad
  10
138.239
  20
231.827
  0
VERTEX
  8
MMIC_BondPad
  10
137.819
  20
232.714
  0
VERTEX
  8
MMIC_BondPad
  10
137.315
  20
233.556
  0
VERTEX
  8
MMIC_BondPad
  10
136.73
  20
234.344
  0
VERTEX
  8
MMIC_BondPad
  10
136.071
  20
235.071
  0
VERTEX
  8
MMIC_BondPad
  10
135.344
  20
235.73
  0
VERTEX
  8
MMIC_BondPad
  10
134.556
  20
236.315
  0
VERTEX
  8
MMIC_BondPad
  10
133.714
  20
236.819
  0
VERTEX
  8
MMIC_BondPad
  10
132.827
  20
237.239
  0
VERTEX
  8
MMIC_BondPad
  10
131.903
  20
237.569
  0
VERTEX
  8
MMIC_BondPad
  10
130.951
  20
237.808
  0
VERTEX
  8
MMIC_BondPad
  10
129.98
  20
237.952
  0
VERTEX
  8
MMIC_BondPad
  10
129
  20
238
  0
VERTEX
  8
MMIC_BondPad
  10
48
  20
238
  0
VERTEX
  8
MMIC_BondPad
  10
47.02
  20
237.952
  0
VERTEX
  8
MMIC_BondPad
  10
46.049
  20
237.808
  0
VERTEX
  8
MMIC_BondPad
  10
45.097
  20
237.569
  0
VERTEX
  8
MMIC_BondPad
  10
44.173
  20
237.239
  0
VERTEX
  8
MMIC_BondPad
  10
43.286
  20
236.819
  0
VERTEX
  8
MMIC_BondPad
  10
42.444
  20
236.315
  0
VERTEX
  8
MMIC_BondPad
  10
41.656
  20
235.73
  0
VERTEX
  8
MMIC_BondPad
  10
40.929
  20
235.071
  0
VERTEX
  8
MMIC_BondPad
  10
40.27
  20
234.344
  0
VERTEX
  8
MMIC_BondPad
  10
39.685
  20
233.556
  0
VERTEX
  8
MMIC_BondPad
  10
39.181
  20
232.714
  0
VERTEX
  8
MMIC_BondPad
  10
38.761
  20
231.827
  0
VERTEX
  8
MMIC_BondPad
  10
38.431
  20
230.903
  0
VERTEX
  8
MMIC_BondPad
  10
38.192
  20
229.951
  0
VERTEX
  8
MMIC_BondPad
  10
38.048
  20
228.98
  0
VERTEX
  8
MMIC_BondPad
  10
38
  20
228
  0
VERTEX
  8
MMIC_BondPad
  10
38
  20
48
  0
VERTEX
  8
MMIC_BondPad
  10
38.048
  20
47.02
  0
VERTEX
  8
MMIC_BondPad
  10
38.192
  20
46.049
  0
SEQEND
  0
POLYLINE
  8
MMIC_BondPad
  70
1
  66
1
  0
VERTEX
  8
MMIC_BondPad
  10
1861.431
  20
45.097
  0
VERTEX
  8
MMIC_BondPad
  10
1861.761
  20
44.173
  0
VERTEX
  8
MMIC_BondPad
  10
1862.181
  20
43.286
  0
VERTEX
  8
MMIC_BondPad
  10
1862.685
  20
42.444
  0
VERTEX
  8
MMIC_BondPad
  10
1863.27
  20
41.656
  0
VERTEX
  8
MMIC_BondPad
  10
1863.929
  20
40.929
  0
VERTEX
  8
MMIC_BondPad
  10
1864.656
  20
40.27
  0
VERTEX
  8
MMIC_BondPad
  10
1865.444
  20
39.685
  0
VERTEX
  8
MMIC_BondPad
  10
1866.286
  20
39.181
  0
VERTEX
  8
MMIC_BondPad
  10
1867.173
  20
38.761
  0
VERTEX
  8
MMIC_BondPad
  10
1868.097
  20
38.431
  0
VERTEX
  8
MMIC_BondPad
  10
1869.049
  20
38.192
  0
VERTEX
  8
MMIC_BondPad
  10
1870.02
  20
38.048
  0
VERTEX
  8
MMIC_BondPad
  10
1871
  20
38
  0
VERTEX
  8
MMIC_BondPad
  10
1952
  20
38
  0
VERTEX
  8
MMIC_BondPad
  10
1952.98
  20
38.048
  0
VERTEX
  8
MMIC_BondPad
  10
1953.951
  20
38.192
  0
VERTEX
  8
MMIC_BondPad
  10
1954.903
  20
38.431
  0
VERTEX
  8
MMIC_BondPad
  10
1955.827
  20
38.761
  0
VERTEX
  8
MMIC_BondPad
  10
1956.714
  20
39.181
  0
VERTEX
  8
MMIC_BondPad
  10
1957.556
  20
39.685
  0
VERTEX
  8
MMIC_BondPad
  10
1958.344
  20
40.27
  0
VERTEX
  8
MMIC_BondPad
  10
1959.071
  20
40.929
  0
VERTEX
  8
MMIC_BondPad
  10
1959.73
  20
41.656
  0
VERTEX
  8
MMIC_BondPad
  10
1960.315
  20
42.444
  0
VERTEX
  8
MMIC_BondPad
  10
1960.819
  20
43.286
  0
VERTEX
  8
MMIC_BondPad
  10
1961.239
  20
44.173
  0
VERTEX
  8
MMIC_BondPad
  10
1961.569
  20
45.097
  0
VERTEX
  8
MMIC_BondPad
  10
1961.808
  20
46.049
  0
VERTEX
  8
MMIC_BondPad
  10
1961.952
  20
47.02
  0
VERTEX
  8
MMIC_BondPad
  10
1962
  20
48
  0
VERTEX
  8
MMIC_BondPad
  10
1962
  20
228
  0
VERTEX
  8
MMIC_BondPad
  10
1961.952
  20
228.98
  0
VERTEX
  8
MMIC_BondPad
  10
1961.808
  20
229.951
  0
VERTEX
  8
MMIC_BondPad
  10
1961.569
  20
230.903
  0
VERTEX
  8
MMIC_BondPad
  10
1961.239
  20
231.827
  0
VERTEX
  8
MMIC_BondPad
  10
1960.819
  20
232.714
  0
VERTEX
  8
MMIC_BondPad
  10
1960.315
  20
233.556
  0
VERTEX
  8
MMIC_BondPad
  10
1959.73
  20
234.344
  0
VERTEX
  8
MMIC_BondPad
  10
1959.071
  20
235.071
  0
VERTEX
  8
MMIC_BondPad
  10
1958.344
  20
235.73
  0
VERTEX
  8
MMIC_BondPad
  10
1957.556
  20
236.315
  0
VERTEX
  8
MMIC_BondPad
  10
1956.714
  20
236.819
  0
VERTEX
  8
MMIC_BondPad
  10
1955.827
  20
237.239
  0
VERTEX
  8
MMIC_BondPad
  10
1954.903
  20
237.569
  0
VERTEX
  8
MMIC_BondPad
  10
1953.951
  20
237.808
  0
VERTEX
  8
MMIC_BondPad
  10
1952.98
  20
237.952
  0
VERTEX
  8
MMIC_BondPad
  10
1952
  20
238
  0
VERTEX
  8
MMIC_BondPad
  10
1871
  20
238
  0
VERTEX
  8
MMIC_BondPad
  10
1870.02
  20
237.952
  0
VERTEX
  8
MMIC_BondPad
  10
1869.049
  20
237.808
  0
VERTEX
  8
MMIC_BondPad
  10
1868.097
  20
237.569
  0
VERTEX
  8
MMIC_BondPad
  10
1867.173
  20
237.239
  0
VERTEX
  8
MMIC_BondPad
  10
1866.286
  20
236.819
  0
VERTEX
  8
MMIC_BondPad
  10
1865.444
  20
236.315
  0
VERTEX
  8
MMIC_BondPad
  10
1864.656
  20
235.73
  0
VERTEX
  8
MMIC_BondPad
  10
1863.929
  20
235.071
  0
VERTEX
  8
MMIC_BondPad
  10
1863.27
  20
234.344
  0
VERTEX
  8
MMIC_BondPad
  10
1862.685
  20
233.556
  0
VERTEX
  8
MMIC_BondPad
  10
1862.181
  20
232.714
  0
VERTEX
  8
MMIC_BondPad
  10
1861.761
  20
231.827
  0
VERTEX
  8
MMIC_BondPad
  10
1861.431
  20
230.903
  0
VERTEX
  8
MMIC_BondPad
  10
1861.192
  20
229.951
  0
VERTEX
  8
MMIC_BondPad
  10
1861.048
  20
228.98
  0
VERTEX
  8
MMIC_BondPad
  10
1861
  20
228
  0
VERTEX
  8
MMIC_BondPad
  10
1861
  20
48
  0
VERTEX
  8
MMIC_BondPad
  10
1861.048
  20
47.02
  0
VERTEX
  8
MMIC_BondPad
  10
1861.192
  20
46.049
  0
SEQEND
  0
POLYLINE
  8
MMIC_BondPad
  70
1
  66
1
  0
VERTEX
  8
MMIC_BondPad
  10
1861.431
  20
2269.097
  0
VERTEX
  8
MMIC_BondPad
  10
1861.761
  20
2268.173
  0
VERTEX
  8
MMIC_BondPad
  10
1862.181
  20
2267.286
  0
VERTEX
  8
MMIC_BondPad
  10
1862.685
  20
2266.444
  0
VERTEX
  8
MMIC_BondPad
  10
1863.27
  20
2265.656
  0
VERTEX
  8
MMIC_BondPad
  10
1863.929
  20
2264.929
  0
VERTEX
  8
MMIC_BondPad
  10
1864.656
  20
2264.27
  0
VERTEX
  8
MMIC_BondPad
  10
1865.444
  20
2263.685
  0
VERTEX
  8
MMIC_BondPad
  10
1866.286
  20
2263.181
  0
VERTEX
  8
MMIC_BondPad
  10
1867.173
  20
2262.761
  0
VERTEX
  8
MMIC_BondPad
  10
1868.097
  20
2262.431
  0
VERTEX
  8
MMIC_BondPad
  10
1869.049
  20
2262.192
  0
VERTEX
  8
MMIC_BondPad
  10
1870.02
  20
2262.048
  0
VERTEX
  8
MMIC_BondPad
  10
1871
  20
2262
  0
VERTEX
  8
MMIC_BondPad
  10
1952
  20
2262
  0
VERTEX
  8
MMIC_BondPad
  10
1952.98
  20
2262.048
  0
VERTEX
  8
MMIC_BondPad
  10
1953.951
  20
2262.192
  0
VERTEX
  8
MMIC_BondPad
  10
1954.903
  20
2262.431
  0
VERTEX
  8
MMIC_BondPad
  10
1955.827
  20
2262.761
  0
VERTEX
  8
MMIC_BondPad
  10
1956.714
  20
2263.181
  0
VERTEX
  8
MMIC_BondPad
  10
1957.556
  20
2263.685
  0
VERTEX
  8
MMIC_BondPad
  10
1958.344
  20
2264.27
  0
VERTEX
  8
MMIC_BondPad
  10
1959.071
  20
2264.929
  0
VERTEX
  8
MMIC_BondPad
  10
1959.73
  20
2265.656
  0
VERTEX
  8
MMIC_BondPad
  10
1960.315
  20
2266.444
  0
VERTEX
  8
MMIC_BondPad
  10
1960.819
  20
2267.286
  0
VERTEX
  8
MMIC_BondPad
  10
1961.239
  20
2268.173
  0
VERTEX
  8
MMIC_BondPad
  10
1961.569
  20
2269.097
  0
VERTEX
  8
MMIC_BondPad
  10
1961.808
  20
2270.049
  0
VERTEX
  8
MMIC_BondPad
  10
1961.952
  20
2271.02
  0
VERTEX
  8
MMIC_BondPad
  10
1962
  20
2272
  0
VERTEX
  8
MMIC_BondPad
  10
1962
  20
2452
  0
VERTEX
  8
MMIC_BondPad
  10
1961.952
  20
2452.98
  0
VERTEX
  8
MMIC_BondPad
  10
1961.808
  20
2453.951
  0
VERTEX
  8
MMIC_BondPad
  10
1961.569
  20
2454.903
  0
VERTEX
  8
MMIC_BondPad
  10
1961.239
  20
2455.827
  0
VERTEX
  8
MMIC_BondPad
  10
1960.819
  20
2456.714
  0
VERTEX
  8
MMIC_BondPad
  10
1960.315
  20
2457.556
  0
VERTEX
  8
MMIC_BondPad
  10
1959.73
  20
2458.344
  0
VERTEX
  8
MMIC_BondPad
  10
1959.071
  20
2459.071
  0
VERTEX
  8
MMIC_BondPad
  10
1958.344
  20
2459.73
  0
VERTEX
  8
MMIC_BondPad
  10
1957.556
  20
2460.315
  0
VERTEX
  8
MMIC_BondPad
  10
1956.714
  20
2460.819
  0
VERTEX
  8
MMIC_BondPad
  10
1955.827
  20
2461.239
  0
VERTEX
  8
MMIC_BondPad
  10
1954.903
  20
2461.569
  0
VERTEX
  8
MMIC_BondPad
  10
1953.951
  20
2461.808
  0
VERTEX
  8
MMIC_BondPad
  10
1952.98
  20
2461.952
  0
VERTEX
  8
MMIC_BondPad
  10
1952
  20
2462
  0
VERTEX
  8
MMIC_BondPad
  10
1871
  20
2462
  0
VERTEX
  8
MMIC_BondPad
  10
1870.02
  20
2461.952
  0
VERTEX
  8
MMIC_BondPad
  10
1869.049
  20
2461.808
  0
VERTEX
  8
MMIC_BondPad
  10
1868.097
  20
2461.569
  0
VERTEX
  8
MMIC_BondPad
  10
1867.173
  20
2461.239
  0
VERTEX
  8
MMIC_BondPad
  10
1866.286
  20
2460.819
  0
VERTEX
  8
MMIC_BondPad
  10
1865.444
  20
2460.315
  0
VERTEX
  8
MMIC_BondPad
  10
1864.656
  20
2459.73
  0
VERTEX
  8
MMIC_BondPad
  10
1863.929
  20
2459.071
  0
VERTEX
  8
MMIC_BondPad
  10
1863.27
  20
2458.344
  0
VERTEX
  8
MMIC_BondPad
  10
1862.685
  20
2457.556
  0
VERTEX
  8
MMIC_BondPad
  10
1862.181
  20
2456.714
  0
VERTEX
  8
MMIC_BondPad
  10
1861.761
  20
2455.827
  0
VERTEX
  8
MMIC_BondPad
  10
1861.431
  20
2454.903
  0
VERTEX
  8
MMIC_BondPad
  10
1861.192
  20
2453.951
  0
VERTEX
  8
MMIC_BondPad
  10
1861.048
  20
2452.98
  0
VERTEX
  8
MMIC_BondPad
  10
1861
  20
2452
  0
VERTEX
  8
MMIC_BondPad
  10
1861
  20
2272
  0
VERTEX
  8
MMIC_BondPad
  10
1861.048
  20
2271.02
  0
VERTEX
  8
MMIC_BondPad
  10
1861.192
  20
2270.049
  0
SEQEND
  0
POLYLINE
  8
MMIC_BondPad
  70
1
  66
1
  0
VERTEX
  8
MMIC_BondPad
  10
38.431
  20
1625.597
  0
VERTEX
  8
MMIC_BondPad
  10
38.761
  20
1624.673
  0
VERTEX
  8
MMIC_BondPad
  10
39.181
  20
1623.786
  0
VERTEX
  8
MMIC_BondPad
  10
39.685
  20
1622.944
  0
VERTEX
  8
MMIC_BondPad
  10
40.27
  20
1622.156
  0
VERTEX
  8
MMIC_BondPad
  10
40.929
  20
1621.429
  0
VERTEX
  8
MMIC_BondPad
  10
41.656
  20
1620.77
  0
VERTEX
  8
MMIC_BondPad
  10
42.444
  20
1620.185
  0
VERTEX
  8
MMIC_BondPad
  10
43.286
  20
1619.681
  0
VERTEX
  8
MMIC_BondPad
  10
44.173
  20
1619.261
  0
VERTEX
  8
MMIC_BondPad
  10
45.097
  20
1618.931
  0
VERTEX
  8
MMIC_BondPad
  10
46.049
  20
1618.692
  0
VERTEX
  8
MMIC_BondPad
  10
47.02
  20
1618.548
  0
VERTEX
  8
MMIC_BondPad
  10
48
  20
1618.5
  0
VERTEX
  8
MMIC_BondPad
  10
129
  20
1618.5
  0
VERTEX
  8
MMIC_BondPad
  10
129.98
  20
1618.548
  0
VERTEX
  8
MMIC_BondPad
  10
130.951
  20
1618.692
  0
VERTEX
  8
MMIC_BondPad
  10
131.903
  20
1618.931
  0
VERTEX
  8
MMIC_BondPad
  10
132.827
  20
1619.261
  0
VERTEX
  8
MMIC_BondPad
  10
133.714
  20
1619.681
  0
VERTEX
  8
MMIC_BondPad
  10
134.556
  20
1620.185
  0
VERTEX
  8
MMIC_BondPad
  10
135.344
  20
1620.77
  0
VERTEX
  8
MMIC_BondPad
  10
136.071
  20
1621.429
  0
VERTEX
  8
MMIC_BondPad
  10
136.73
  20
1622.156
  0
VERTEX
  8
MMIC_BondPad
  10
137.315
  20
1622.944
  0
VERTEX
  8
MMIC_BondPad
  10
137.819
  20
1623.786
  0
VERTEX
  8
MMIC_BondPad
  10
138.239
  20
1624.673
  0
VERTEX
  8
MMIC_BondPad
  10
138.569
  20
1625.597
  0
VERTEX
  8
MMIC_BondPad
  10
138.808
  20
1626.549
  0
VERTEX
  8
MMIC_BondPad
  10
138.952
  20
1627.52
  0
VERTEX
  8
MMIC_BondPad
  10
139
  20
1628.5
  0
VERTEX
  8
MMIC_BondPad
  10
139
  20
1683.5
  0
VERTEX
  8
MMIC_BondPad
  10
138.952
  20
1684.48
  0
VERTEX
  8
MMIC_BondPad
  10
138.808
  20
1685.451
  0
VERTEX
  8
MMIC_BondPad
  10
138.569
  20
1686.403
  0
VERTEX
  8
MMIC_BondPad
  10
138.239
  20
1687.327
  0
VERTEX
  8
MMIC_BondPad
  10
137.819
  20
1688.214
  0
VERTEX
  8
MMIC_BondPad
  10
137.315
  20
1689.056
  0
VERTEX
  8
MMIC_BondPad
  10
136.73
  20
1689.844
  0
VERTEX
  8
MMIC_BondPad
  10
136.071
  20
1690.571
  0
VERTEX
  8
MMIC_BondPad
  10
135.344
  20
1691.23
  0
VERTEX
  8
MMIC_BondPad
  10
134.556
  20
1691.815
  0
VERTEX
  8
MMIC_BondPad
  10
133.714
  20
1692.319
  0
VERTEX
  8
MMIC_BondPad
  10
132.827
  20
1692.739
  0
VERTEX
  8
MMIC_BondPad
  10
131.903
  20
1693.069
  0
VERTEX
  8
MMIC_BondPad
  10
130.951
  20
1693.308
  0
VERTEX
  8
MMIC_BondPad
  10
129.98
  20
1693.452
  0
VERTEX
  8
MMIC_BondPad
  10
129
  20
1693.5
  0
VERTEX
  8
MMIC_BondPad
  10
48
  20
1693.5
  0
VERTEX
  8
MMIC_BondPad
  10
47.02
  20
1693.452
  0
VERTEX
  8
MMIC_BondPad
  10
46.049
  20
1693.308
  0
VERTEX
  8
MMIC_BondPad
  10
45.097
  20
1693.069
  0
VERTEX
  8
MMIC_BondPad
  10
44.173
  20
1692.739
  0
VERTEX
  8
MMIC_BondPad
  10
43.286
  20
1692.319
  0
VERTEX
  8
MMIC_BondPad
  10
42.444
  20
1691.815
  0
VERTEX
  8
MMIC_BondPad
  10
41.656
  20
1691.23
  0
VERTEX
  8
MMIC_BondPad
  10
40.929
  20
1690.571
  0
VERTEX
  8
MMIC_BondPad
  10
40.27
  20
1689.844
  0
VERTEX
  8
MMIC_BondPad
  10
39.685
  20
1689.056
  0
VERTEX
  8
MMIC_BondPad
  10
39.181
  20
1688.214
  0
VERTEX
  8
MMIC_BondPad
  10
38.761
  20
1687.327
  0
VERTEX
  8
MMIC_BondPad
  10
38.431
  20
1686.403
  0
VERTEX
  8
MMIC_BondPad
  10
38.192
  20
1685.451
  0
VERTEX
  8
MMIC_BondPad
  10
38.048
  20
1684.48
  0
VERTEX
  8
MMIC_BondPad
  10
38
  20
1683.5
  0
VERTEX
  8
MMIC_BondPad
  10
38
  20
1628.5
  0
VERTEX
  8
MMIC_BondPad
  10
38.048
  20
1627.52
  0
VERTEX
  8
MMIC_BondPad
  10
38.192
  20
1626.549
  0
SEQEND
  0
POLYLINE
  8
MMIC_BondPad
  70
1
  66
1
  0
VERTEX
  8
MMIC_BondPad
  10
38.431
  20
1713.097
  0
VERTEX
  8
MMIC_BondPad
  10
38.761
  20
1712.173
  0
VERTEX
  8
MMIC_BondPad
  10
39.181
  20
1711.286
  0
VERTEX
  8
MMIC_BondPad
  10
39.685
  20
1710.444
  0
VERTEX
  8
MMIC_BondPad
  10
40.27
  20
1709.656
  0
VERTEX
  8
MMIC_BondPad
  10
40.929
  20
1708.929
  0
VERTEX
  8
MMIC_BondPad
  10
41.656
  20
1708.27
  0
VERTEX
  8
MMIC_BondPad
  10
42.444
  20
1707.685
  0
VERTEX
  8
MMIC_BondPad
  10
43.286
  20
1707.181
  0
VERTEX
  8
MMIC_BondPad
  10
44.173
  20
1706.761
  0
VERTEX
  8
MMIC_BondPad
  10
45.097
  20
1706.431
  0
VERTEX
  8
MMIC_BondPad
  10
46.049
  20
1706.192
  0
VERTEX
  8
MMIC_BondPad
  10
47.02
  20
1706.048
  0
VERTEX
  8
MMIC_BondPad
  10
48
  20
1706
  0
VERTEX
  8
MMIC_BondPad
  10
129
  20
1706
  0
VERTEX
  8
MMIC_BondPad
  10
129.98
  20
1706.048
  0
VERTEX
  8
MMIC_BondPad
  10
130.951
  20
1706.192
  0
VERTEX
  8
MMIC_BondPad
  10
131.903
  20
1706.431
  0
VERTEX
  8
MMIC_BondPad
  10
132.827
  20
1706.761
  0
VERTEX
  8
MMIC_BondPad
  10
133.714
  20
1707.181
  0
VERTEX
  8
MMIC_BondPad
  10
134.556
  20
1707.685
  0
VERTEX
  8
MMIC_BondPad
  10
135.344
  20
1708.27
  0
VERTEX
  8
MMIC_BondPad
  10
136.071
  20
1708.929
  0
VERTEX
  8
MMIC_BondPad
  10
136.73
  20
1709.656
  0
VERTEX
  8
MMIC_BondPad
  10
137.315
  20
1710.444
  0
VERTEX
  8
MMIC_BondPad
  10
137.819
  20
1711.286
  0
VERTEX
  8
MMIC_BondPad
  10
138.239
  20
1712.173
  0
VERTEX
  8
MMIC_BondPad
  10
138.569
  20
1713.097
  0
VERTEX
  8
MMIC_BondPad
  10
138.808
  20
1714.049
  0
VERTEX
  8
MMIC_BondPad
  10
138.952
  20
1715.02
  0
VERTEX
  8
MMIC_BondPad
  10
139
  20
1716
  0
VERTEX
  8
MMIC_BondPad
  10
139
  20
1896
  0
VERTEX
  8
MMIC_BondPad
  10
138.952
  20
1896.98
  0
VERTEX
  8
MMIC_BondPad
  10
138.808
  20
1897.951
  0
VERTEX
  8
MMIC_BondPad
  10
138.569
  20
1898.903
  0
VERTEX
  8
MMIC_BondPad
  10
138.239
  20
1899.827
  0
VERTEX
  8
MMIC_BondPad
  10
137.819
  20
1900.714
  0
VERTEX
  8
MMIC_BondPad
  10
137.315
  20
1901.556
  0
VERTEX
  8
MMIC_BondPad
  10
136.73
  20
1902.344
  0
VERTEX
  8
MMIC_BondPad
  10
136.071
  20
1903.071
  0
VERTEX
  8
MMIC_BondPad
  10
135.344
  20
1903.73
  0
VERTEX
  8
MMIC_BondPad
  10
134.556
  20
1904.315
  0
VERTEX
  8
MMIC_BondPad
  10
133.714
  20
1904.819
  0
VERTEX
  8
MMIC_BondPad
  10
132.827
  20
1905.239
  0
VERTEX
  8
MMIC_BondPad
  10
131.903
  20
1905.569
  0
VERTEX
  8
MMIC_BondPad
  10
130.951
  20
1905.808
  0
VERTEX
  8
MMIC_BondPad
  10
129.98
  20
1905.952
  0
VERTEX
  8
MMIC_BondPad
  10
129
  20
1906
  0
VERTEX
  8
MMIC_BondPad
  10
48
  20
1906
  0
VERTEX
  8
MMIC_BondPad
  10
47.02
  20
1905.952
  0
VERTEX
  8
MMIC_BondPad
  10
46.049
  20
1905.808
  0
VERTEX
  8
MMIC_BondPad
  10
45.097
  20
1905.569
  0
VERTEX
  8
MMIC_BondPad
  10
44.173
  20
1905.239
  0
VERTEX
  8
MMIC_BondPad
  10
43.286
  20
1904.819
  0
VERTEX
  8
MMIC_BondPad
  10
42.444
  20
1904.315
  0
VERTEX
  8
MMIC_BondPad
  10
41.656
  20
1903.73
  0
VERTEX
  8
MMIC_BondPad
  10
40.929
  20
1903.071
  0
VERTEX
  8
MMIC_BondPad
  10
40.27
  20
1902.344
  0
VERTEX
  8
MMIC_BondPad
  10
39.685
  20
1901.556
  0
VERTEX
  8
MMIC_BondPad
  10
39.181
  20
1900.714
  0
VERTEX
  8
MMIC_BondPad
  10
38.761
  20
1899.827
  0
VERTEX
  8
MMIC_BondPad
  10
38.431
  20
1898.903
  0
VERTEX
  8
MMIC_BondPad
  10
38.192
  20
1897.951
  0
VERTEX
  8
MMIC_BondPad
  10
38.048
  20
1896.98
  0
VERTEX
  8
MMIC_BondPad
  10
38
  20
1896
  0
VERTEX
  8
MMIC_BondPad
  10
38
  20
1716
  0
VERTEX
  8
MMIC_BondPad
  10
38.048
  20
1715.02
  0
VERTEX
  8
MMIC_BondPad
  10
38.192
  20
1714.049
  0
SEQEND
  0
POLYLINE
  8
MMIC_BondPad
  70
1
  66
1
  0
VERTEX
  8
MMIC_BondPad
  10
1861.431
  20
2181.597
  0
VERTEX
  8
MMIC_BondPad
  10
1861.761
  20
2180.673
  0
VERTEX
  8
MMIC_BondPad
  10
1862.181
  20
2179.786
  0
VERTEX
  8
MMIC_BondPad
  10
1862.685
  20
2178.944
  0
VERTEX
  8
MMIC_BondPad
  10
1863.27
  20
2178.156
  0
VERTEX
  8
MMIC_BondPad
  10
1863.929
  20
2177.429
  0
VERTEX
  8
MMIC_BondPad
  10
1864.656
  20
2176.77
  0
VERTEX
  8
MMIC_BondPad
  10
1865.444
  20
2176.185
  0
VERTEX
  8
MMIC_BondPad
  10
1866.286
  20
2175.681
  0
VERTEX
  8
MMIC_BondPad
  10
1867.173
  20
2175.261
  0
VERTEX
  8
MMIC_BondPad
  10
1868.097
  20
2174.931
  0
VERTEX
  8
MMIC_BondPad
  10
1869.049
  20
2174.692
  0
VERTEX
  8
MMIC_BondPad
  10
1870.02
  20
2174.548
  0
VERTEX
  8
MMIC_BondPad
  10
1871
  20
2174.5
  0
VERTEX
  8
MMIC_BondPad
  10
1952
  20
2174.5
  0
VERTEX
  8
MMIC_BondPad
  10
1952.98
  20
2174.548
  0
VERTEX
  8
MMIC_BondPad
  10
1953.951
  20
2174.692
  0
VERTEX
  8
MMIC_BondPad
  10
1954.903
  20
2174.931
  0
VERTEX
  8
MMIC_BondPad
  10
1955.827
  20
2175.261
  0
VERTEX
  8
MMIC_BondPad
  10
1956.714
  20
2175.681
  0
VERTEX
  8
MMIC_BondPad
  10
1957.556
  20
2176.185
  0
VERTEX
  8
MMIC_BondPad
  10
1958.344
  20
2176.77
  0
VERTEX
  8
MMIC_BondPad
  10
1959.071
  20
2177.429
  0
VERTEX
  8
MMIC_BondPad
  10
1959.73
  20
2178.156
  0
VERTEX
  8
MMIC_BondPad
  10
1960.315
  20
2178.944
  0
VERTEX
  8
MMIC_BondPad
  10
1960.819
  20
2179.786
  0
VERTEX
  8
MMIC_BondPad
  10
1961.239
  20
2180.673
  0
VERTEX
  8
MMIC_BondPad
  10
1961.569
  20
2181.597
  0
VERTEX
  8
MMIC_BondPad
  10
1961.808
  20
2182.549
  0
VERTEX
  8
MMIC_BondPad
  10
1961.952
  20
2183.52
  0
VERTEX
  8
MMIC_BondPad
  10
1962
  20
2184.5
  0
VERTEX
  8
MMIC_BondPad
  10
1962
  20
2239.5
  0
VERTEX
  8
MMIC_BondPad
  10
1961.952
  20
2240.48
  0
VERTEX
  8
MMIC_BondPad
  10
1961.808
  20
2241.451
  0
VERTEX
  8
MMIC_BondPad
  10
1961.569
  20
2242.403
  0
VERTEX
  8
MMIC_BondPad
  10
1961.239
  20
2243.327
  0
VERTEX
  8
MMIC_BondPad
  10
1960.819
  20
2244.214
  0
VERTEX
  8
MMIC_BondPad
  10
1960.315
  20
2245.056
  0
VERTEX
  8
MMIC_BondPad
  10
1959.73
  20
2245.844
  0
VERTEX
  8
MMIC_BondPad
  10
1959.071
  20
2246.571
  0
VERTEX
  8
MMIC_BondPad
  10
1958.344
  20
2247.23
  0
VERTEX
  8
MMIC_BondPad
  10
1957.556
  20
2247.815
  0
VERTEX
  8
MMIC_BondPad
  10
1956.714
  20
2248.319
  0
VERTEX
  8
MMIC_BondPad
  10
1955.827
  20
2248.739
  0
VERTEX
  8
MMIC_BondPad
  10
1954.903
  20
2249.069
  0
VERTEX
  8
MMIC_BondPad
  10
1953.951
  20
2249.308
  0
VERTEX
  8
MMIC_BondPad
  10
1952.98
  20
2249.452
  0
VERTEX
  8
MMIC_BondPad
  10
1952
  20
2249.5
  0
VERTEX
  8
MMIC_BondPad
  10
1871
  20
2249.5
  0
VERTEX
  8
MMIC_BondPad
  10
1870.02
  20
2249.452
  0
VERTEX
  8
MMIC_BondPad
  10
1869.049
  20
2249.308
  0
VERTEX
  8
MMIC_BondPad
  10
1868.097
  20
2249.069
  0
VERTEX
  8
MMIC_BondPad
  10
1867.173
  20
2248.739
  0
VERTEX
  8
MMIC_BondPad
  10
1866.286
  20
2248.319
  0
VERTEX
  8
MMIC_BondPad
  10
1865.444
  20
2247.815
  0
VERTEX
  8
MMIC_BondPad
  10
1864.656
  20
2247.23
  0
VERTEX
  8
MMIC_BondPad
  10
1863.929
  20
2246.571
  0
VERTEX
  8
MMIC_BondPad
  10
1863.27
  20
2245.844
  0
VERTEX
  8
MMIC_BondPad
  10
1862.685
  20
2245.056
  0
VERTEX
  8
MMIC_BondPad
  10
1862.181
  20
2244.214
  0
VERTEX
  8
MMIC_BondPad
  10
1861.761
  20
2243.327
  0
VERTEX
  8
MMIC_BondPad
  10
1861.431
  20
2242.403
  0
VERTEX
  8
MMIC_BondPad
  10
1861.192
  20
2241.451
  0
VERTEX
  8
MMIC_BondPad
  10
1861.048
  20
2240.48
  0
VERTEX
  8
MMIC_BondPad
  10
1861
  20
2239.5
  0
VERTEX
  8
MMIC_BondPad
  10
1861
  20
2184.5
  0
VERTEX
  8
MMIC_BondPad
  10
1861.048
  20
2183.52
  0
VERTEX
  8
MMIC_BondPad
  10
1861.192
  20
2182.549
  0
SEQEND
  0
POLYLINE
  8
MMIC_BondPad
  70
1
  66
1
  0
VERTEX
  8
MMIC_BondPad
  10
1954.903
  20
250.931
  0
VERTEX
  8
MMIC_BondPad
  10
1955.827
  20
251.261
  0
VERTEX
  8
MMIC_BondPad
  10
1956.714
  20
251.681
  0
VERTEX
  8
MMIC_BondPad
  10
1957.556
  20
252.185
  0
VERTEX
  8
MMIC_BondPad
  10
1958.344
  20
252.77
  0
VERTEX
  8
MMIC_BondPad
  10
1959.071
  20
253.429
  0
VERTEX
  8
MMIC_BondPad
  10
1959.73
  20
254.156
  0
VERTEX
  8
MMIC_BondPad
  10
1960.315
  20
254.944
  0
VERTEX
  8
MMIC_BondPad
  10
1960.819
  20
255.786
  0
VERTEX
  8
MMIC_BondPad
  10
1961.239
  20
256.673
  0
VERTEX
  8
MMIC_BondPad
  10
1961.569
  20
257.597
  0
VERTEX
  8
MMIC_BondPad
  10
1961.808
  20
258.549
  0
VERTEX
  8
MMIC_BondPad
  10
1961.952
  20
259.52
  0
VERTEX
  8
MMIC_BondPad
  10
1962
  20
260.5
  0
VERTEX
  8
MMIC_BondPad
  10
1962
  20
315.5
  0
VERTEX
  8
MMIC_BondPad
  10
1961.952
  20
316.48
  0
VERTEX
  8
MMIC_BondPad
  10
1961.808
  20
317.451
  0
VERTEX
  8
MMIC_BondPad
  10
1961.569
  20
318.403
  0
VERTEX
  8
MMIC_BondPad
  10
1961.239
  20
319.327
  0
VERTEX
  8
MMIC_BondPad
  10
1960.819
  20
320.214
  0
VERTEX
  8
MMIC_BondPad
  10
1960.315
  20
321.056
  0
VERTEX
  8
MMIC_BondPad
  10
1959.73
  20
321.844
  0
VERTEX
  8
MMIC_BondPad
  10
1959.071
  20
322.571
  0
VERTEX
  8
MMIC_BondPad
  10
1958.344
  20
323.23
  0
VERTEX
  8
MMIC_BondPad
  10
1957.556
  20
323.815
  0
VERTEX
  8
MMIC_BondPad
  10
1956.714
  20
324.319
  0
VERTEX
  8
MMIC_BondPad
  10
1955.827
  20
324.739
  0
VERTEX
  8
MMIC_BondPad
  10
1954.903
  20
325.069
  0
VERTEX
  8
MMIC_BondPad
  10
1953.951
  20
325.308
  0
VERTEX
  8
MMIC_BondPad
  10
1952.98
  20
325.452
  0
VERTEX
  8
MMIC_BondPad
  10
1952
  20
325.5
  0
VERTEX
  8
MMIC_BondPad
  10
1861
  20
325.5
  0
VERTEX
  8
MMIC_BondPad
  10
1861
  20
250.5
  0
VERTEX
  8
MMIC_BondPad
  10
1952
  20
250.5
  0
VERTEX
  8
MMIC_BondPad
  10
1952.98
  20
250.548
  0
VERTEX
  8
MMIC_BondPad
  10
1953.951
  20
250.692
  0
SEQEND
  0
POLYLINE
  8
MMIC_OverCoat
  70
1
  66
1
  0
VERTEX
  8
MMIC_OverCoat
  10
1866.931
  20
263.097
  0
VERTEX
  8
MMIC_OverCoat
  10
1867.261
  20
262.173
  0
VERTEX
  8
MMIC_OverCoat
  10
1867.681
  20
261.286
  0
VERTEX
  8
MMIC_OverCoat
  10
1868.185
  20
260.444
  0
VERTEX
  8
MMIC_OverCoat
  10
1868.77
  20
259.656
  0
VERTEX
  8
MMIC_OverCoat
  10
1869.429
  20
258.929
  0
VERTEX
  8
MMIC_OverCoat
  10
1870.156
  20
258.27
  0
VERTEX
  8
MMIC_OverCoat
  10
1870.944
  20
257.685
  0
VERTEX
  8
MMIC_OverCoat
  10
1871.786
  20
257.181
  0
VERTEX
  8
MMIC_OverCoat
  10
1872.673
  20
256.761
  0
VERTEX
  8
MMIC_OverCoat
  10
1873.597
  20
256.431
  0
VERTEX
  8
MMIC_OverCoat
  10
1874.549
  20
256.192
  0
VERTEX
  8
MMIC_OverCoat
  10
1875.52
  20
256.048
  0
VERTEX
  8
MMIC_OverCoat
  10
1876.5
  20
256
  0
VERTEX
  8
MMIC_OverCoat
  10
1946.5
  20
256
  0
VERTEX
  8
MMIC_OverCoat
  10
1947.48
  20
256.048
  0
VERTEX
  8
MMIC_OverCoat
  10
1948.451
  20
256.192
  0
VERTEX
  8
MMIC_OverCoat
  10
1949.403
  20
256.431
  0
VERTEX
  8
MMIC_OverCoat
  10
1950.327
  20
256.761
  0
VERTEX
  8
MMIC_OverCoat
  10
1951.214
  20
257.181
  0
VERTEX
  8
MMIC_OverCoat
  10
1952.056
  20
257.685
  0
VERTEX
  8
MMIC_OverCoat
  10
1952.844
  20
258.27
  0
VERTEX
  8
MMIC_OverCoat
  10
1953.571
  20
258.929
  0
VERTEX
  8
MMIC_OverCoat
  10
1954.23
  20
259.656
  0
VERTEX
  8
MMIC_OverCoat
  10
1954.815
  20
260.444
  0
VERTEX
  8
MMIC_OverCoat
  10
1955.319
  20
261.286
  0
VERTEX
  8
MMIC_OverCoat
  10
1955.739
  20
262.173
  0
VERTEX
  8
MMIC_OverCoat
  10
1956.069
  20
263.097
  0
VERTEX
  8
MMIC_OverCoat
  10
1956.308
  20
264.049
  0
VERTEX
  8
MMIC_OverCoat
  10
1956.452
  20
265.02
  0
VERTEX
  8
MMIC_OverCoat
  10
1956.5
  20
266
  0
VERTEX
  8
MMIC_OverCoat
  10
1956.5
  20
310
  0
VERTEX
  8
MMIC_OverCoat
  10
1956.452
  20
310.98
  0
VERTEX
  8
MMIC_OverCoat
  10
1956.308
  20
311.951
  0
VERTEX
  8
MMIC_OverCoat
  10
1956.069
  20
312.903
  0
VERTEX
  8
MMIC_OverCoat
  10
1955.739
  20
313.827
  0
VERTEX
  8
MMIC_OverCoat
  10
1955.319
  20
314.714
  0
VERTEX
  8
MMIC_OverCoat
  10
1954.815
  20
315.556
  0
VERTEX
  8
MMIC_OverCoat
  10
1954.23
  20
316.344
  0
VERTEX
  8
MMIC_OverCoat
  10
1953.571
  20
317.071
  0
VERTEX
  8
MMIC_OverCoat
  10
1952.844
  20
317.73
  0
VERTEX
  8
MMIC_OverCoat
  10
1952.056
  20
318.315
  0
VERTEX
  8
MMIC_OverCoat
  10
1951.214
  20
318.819
  0
VERTEX
  8
MMIC_OverCoat
  10
1950.327
  20
319.239
  0
VERTEX
  8
MMIC_OverCoat
  10
1949.403
  20
319.569
  0
VERTEX
  8
MMIC_OverCoat
  10
1948.451
  20
319.808
  0
VERTEX
  8
MMIC_OverCoat
  10
1947.48
  20
319.952
  0
VERTEX
  8
MMIC_OverCoat
  10
1946.5
  20
320
  0
VERTEX
  8
MMIC_OverCoat
  10
1876.5
  20
320
  0
VERTEX
  8
MMIC_OverCoat
  10
1875.52
  20
319.952
  0
VERTEX
  8
MMIC_OverCoat
  10
1874.549
  20
319.808
  0
VERTEX
  8
MMIC_OverCoat
  10
1873.597
  20
319.569
  0
VERTEX
  8
MMIC_OverCoat
  10
1872.673
  20
319.239
  0
VERTEX
  8
MMIC_OverCoat
  10
1871.786
  20
318.819
  0
VERTEX
  8
MMIC_OverCoat
  10
1870.944
  20
318.315
  0
VERTEX
  8
MMIC_OverCoat
  10
1870.156
  20
317.73
  0
VERTEX
  8
MMIC_OverCoat
  10
1869.429
  20
317.071
  0
VERTEX
  8
MMIC_OverCoat
  10
1868.77
  20
316.344
  0
VERTEX
  8
MMIC_OverCoat
  10
1868.185
  20
315.556
  0
VERTEX
  8
MMIC_OverCoat
  10
1867.681
  20
314.714
  0
VERTEX
  8
MMIC_OverCoat
  10
1867.261
  20
313.827
  0
VERTEX
  8
MMIC_OverCoat
  10
1866.931
  20
312.903
  0
VERTEX
  8
MMIC_OverCoat
  10
1866.692
  20
311.951
  0
VERTEX
  8
MMIC_OverCoat
  10
1866.548
  20
310.98
  0
VERTEX
  8
MMIC_OverCoat
  10
1866.5
  20
310
  0
VERTEX
  8
MMIC_OverCoat
  10
1866.5
  20
266
  0
VERTEX
  8
MMIC_OverCoat
  10
1866.548
  20
265.02
  0
VERTEX
  8
MMIC_OverCoat
  10
1866.692
  20
264.049
  0
SEQEND
  0
POLYLINE
  8
MMIC_OverCoat
  70
1
  66
1
  0
VERTEX
  8
MMIC_OverCoat
  10
1866.931
  20
2187.097
  0
VERTEX
  8
MMIC_OverCoat
  10
1867.261
  20
2186.173
  0
VERTEX
  8
MMIC_OverCoat
  10
1867.681
  20
2185.286
  0
VERTEX
  8
MMIC_OverCoat
  10
1868.185
  20
2184.444
  0
VERTEX
  8
MMIC_OverCoat
  10
1868.77
  20
2183.656
  0
VERTEX
  8
MMIC_OverCoat
  10
1869.429
  20
2182.929
  0
VERTEX
  8
MMIC_OverCoat
  10
1870.156
  20
2182.27
  0
VERTEX
  8
MMIC_OverCoat
  10
1870.944
  20
2181.685
  0
VERTEX
  8
MMIC_OverCoat
  10
1871.786
  20
2181.181
  0
VERTEX
  8
MMIC_OverCoat
  10
1872.673
  20
2180.761
  0
VERTEX
  8
MMIC_OverCoat
  10
1873.597
  20
2180.431
  0
VERTEX
  8
MMIC_OverCoat
  10
1874.549
  20
2180.192
  0
VERTEX
  8
MMIC_OverCoat
  10
1875.52
  20
2180.048
  0
VERTEX
  8
MMIC_OverCoat
  10
1876.5
  20
2180
  0
VERTEX
  8
MMIC_OverCoat
  10
1946.5
  20
2180
  0
VERTEX
  8
MMIC_OverCoat
  10
1947.48
  20
2180.048
  0
VERTEX
  8
MMIC_OverCoat
  10
1948.451
  20
2180.192
  0
VERTEX
  8
MMIC_OverCoat
  10
1949.403
  20
2180.431
  0
VERTEX
  8
MMIC_OverCoat
  10
1950.327
  20
2180.761
  0
VERTEX
  8
MMIC_OverCoat
  10
1951.214
  20
2181.181
  0
VERTEX
  8
MMIC_OverCoat
  10
1952.056
  20
2181.685
  0
VERTEX
  8
MMIC_OverCoat
  10
1952.844
  20
2182.27
  0
VERTEX
  8
MMIC_OverCoat
  10
1953.571
  20
2182.929
  0
VERTEX
  8
MMIC_OverCoat
  10
1954.23
  20
2183.656
  0
VERTEX
  8
MMIC_OverCoat
  10
1954.815
  20
2184.444
  0
VERTEX
  8
MMIC_OverCoat
  10
1955.319
  20
2185.286
  0
VERTEX
  8
MMIC_OverCoat
  10
1955.739
  20
2186.173
  0
VERTEX
  8
MMIC_OverCoat
  10
1956.069
  20
2187.097
  0
VERTEX
  8
MMIC_OverCoat
  10
1956.308
  20
2188.049
  0
VERTEX
  8
MMIC_OverCoat
  10
1956.452
  20
2189.02
  0
VERTEX
  8
MMIC_OverCoat
  10
1956.5
  20
2190
  0
VERTEX
  8
MMIC_OverCoat
  10
1956.5
  20
2234
  0
VERTEX
  8
MMIC_OverCoat
  10
1956.452
  20
2234.98
  0
VERTEX
  8
MMIC_OverCoat
  10
1956.308
  20
2235.951
  0
VERTEX
  8
MMIC_OverCoat
  10
1956.069
  20
2236.903
  0
VERTEX
  8
MMIC_OverCoat
  10
1955.739
  20
2237.827
  0
VERTEX
  8
MMIC_OverCoat
  10
1955.319
  20
2238.714
  0
VERTEX
  8
MMIC_OverCoat
  10
1954.815
  20
2239.556
  0
VERTEX
  8
MMIC_OverCoat
  10
1954.23
  20
2240.344
  0
VERTEX
  8
MMIC_OverCoat
  10
1953.571
  20
2241.071
  0
VERTEX
  8
MMIC_OverCoat
  10
1952.844
  20
2241.73
  0
VERTEX
  8
MMIC_OverCoat
  10
1952.056
  20
2242.315
  0
VERTEX
  8
MMIC_OverCoat
  10
1951.214
  20
2242.819
  0
VERTEX
  8
MMIC_OverCoat
  10
1950.327
  20
2243.239
  0
VERTEX
  8
MMIC_OverCoat
  10
1949.403
  20
2243.569
  0
VERTEX
  8
MMIC_OverCoat
  10
1948.451
  20
2243.808
  0
VERTEX
  8
MMIC_OverCoat
  10
1947.48
  20
2243.952
  0
VERTEX
  8
MMIC_OverCoat
  10
1946.5
  20
2244
  0
VERTEX
  8
MMIC_OverCoat
  10
1876.5
  20
2244
  0
VERTEX
  8
MMIC_OverCoat
  10
1875.52
  20
2243.952
  0
VERTEX
  8
MMIC_OverCoat
  10
1874.549
  20
2243.808
  0
VERTEX
  8
MMIC_OverCoat
  10
1873.597
  20
2243.569
  0
VERTEX
  8
MMIC_OverCoat
  10
1872.673
  20
2243.239
  0
VERTEX
  8
MMIC_OverCoat
  10
1871.786
  20
2242.819
  0
VERTEX
  8
MMIC_OverCoat
  10
1870.944
  20
2242.315
  0
VERTEX
  8
MMIC_OverCoat
  10
1870.156
  20
2241.73
  0
VERTEX
  8
MMIC_OverCoat
  10
1869.429
  20
2241.071
  0
VERTEX
  8
MMIC_OverCoat
  10
1868.77
  20
2240.344
  0
VERTEX
  8
MMIC_OverCoat
  10
1868.185
  20
2239.556
  0
VERTEX
  8
MMIC_OverCoat
  10
1867.681
  20
2238.714
  0
VERTEX
  8
MMIC_OverCoat
  10
1867.261
  20
2237.827
  0
VERTEX
  8
MMIC_OverCoat
  10
1866.931
  20
2236.903
  0
VERTEX
  8
MMIC_OverCoat
  10
1866.692
  20
2235.951
  0
VERTEX
  8
MMIC_OverCoat
  10
1866.548
  20
2234.98
  0
VERTEX
  8
MMIC_OverCoat
  10
1866.5
  20
2234
  0
VERTEX
  8
MMIC_OverCoat
  10
1866.5
  20
2190
  0
VERTEX
  8
MMIC_OverCoat
  10
1866.548
  20
2189.02
  0
VERTEX
  8
MMIC_OverCoat
  10
1866.692
  20
2188.049
  0
SEQEND
  0
POLYLINE
  8
MMIC_OverCoat
  70
1
  66
1
  0
VERTEX
  8
MMIC_OverCoat
  10
43.931
  20
1631.097
  0
VERTEX
  8
MMIC_OverCoat
  10
44.261
  20
1630.173
  0
VERTEX
  8
MMIC_OverCoat
  10
44.681
  20
1629.286
  0
VERTEX
  8
MMIC_OverCoat
  10
45.185
  20
1628.444
  0
VERTEX
  8
MMIC_OverCoat
  10
45.77
  20
1627.656
  0
VERTEX
  8
MMIC_OverCoat
  10
46.429
  20
1626.929
  0
VERTEX
  8
MMIC_OverCoat
  10
47.156
  20
1626.27
  0
VERTEX
  8
MMIC_OverCoat
  10
47.944
  20
1625.685
  0
VERTEX
  8
MMIC_OverCoat
  10
48.786
  20
1625.181
  0
VERTEX
  8
MMIC_OverCoat
  10
49.673
  20
1624.761
  0
VERTEX
  8
MMIC_OverCoat
  10
50.597
  20
1624.431
  0
VERTEX
  8
MMIC_OverCoat
  10
51.549
  20
1624.192
  0
VERTEX
  8
MMIC_OverCoat
  10
52.52
  20
1624.048
  0
VERTEX
  8
MMIC_OverCoat
  10
53.5
  20
1624
  0
VERTEX
  8
MMIC_OverCoat
  10
123.5
  20
1624
  0
VERTEX
  8
MMIC_OverCoat
  10
124.48
  20
1624.048
  0
VERTEX
  8
MMIC_OverCoat
  10
125.451
  20
1624.192
  0
VERTEX
  8
MMIC_OverCoat
  10
126.403
  20
1624.431
  0
VERTEX
  8
MMIC_OverCoat
  10
127.327
  20
1624.761
  0
VERTEX
  8
MMIC_OverCoat
  10
128.214
  20
1625.181
  0
VERTEX
  8
MMIC_OverCoat
  10
129.056
  20
1625.685
  0
VERTEX
  8
MMIC_OverCoat
  10
129.844
  20
1626.27
  0
VERTEX
  8
MMIC_OverCoat
  10
130.571
  20
1626.929
  0
VERTEX
  8
MMIC_OverCoat
  10
131.23
  20
1627.656
  0
VERTEX
  8
MMIC_OverCoat
  10
131.815
  20
1628.444
  0
VERTEX
  8
MMIC_OverCoat
  10
132.319
  20
1629.286
  0
VERTEX
  8
MMIC_OverCoat
  10
132.739
  20
1630.173
  0
VERTEX
  8
MMIC_OverCoat
  10
133.069
  20
1631.097
  0
VERTEX
  8
MMIC_OverCoat
  10
133.308
  20
1632.049
  0
VERTEX
  8
MMIC_OverCoat
  10
133.452
  20
1633.02
  0
VERTEX
  8
MMIC_OverCoat
  10
133.5
  20
1634
  0
VERTEX
  8
MMIC_OverCoat
  10
133.5
  20
1678
  0
VERTEX
  8
MMIC_OverCoat
  10
133.452
  20
1678.98
  0
VERTEX
  8
MMIC_OverCoat
  10
133.308
  20
1679.951
  0
VERTEX
  8
MMIC_OverCoat
  10
133.069
  20
1680.903
  0
VERTEX
  8
MMIC_OverCoat
  10
132.739
  20
1681.827
  0
VERTEX
  8
MMIC_OverCoat
  10
132.319
  20
1682.714
  0
VERTEX
  8
MMIC_OverCoat
  10
131.815
  20
1683.556
  0
VERTEX
  8
MMIC_OverCoat
  10
131.23
  20
1684.344
  0
VERTEX
  8
MMIC_OverCoat
  10
130.571
  20
1685.071
  0
VERTEX
  8
MMIC_OverCoat
  10
129.844
  20
1685.73
  0
VERTEX
  8
MMIC_OverCoat
  10
129.056
  20
1686.315
  0
VERTEX
  8
MMIC_OverCoat
  10
128.214
  20
1686.819
  0
VERTEX
  8
MMIC_OverCoat
  10
127.327
  20
1687.239
  0
VERTEX
  8
MMIC_OverCoat
  10
126.403
  20
1687.569
  0
VERTEX
  8
MMIC_OverCoat
  10
125.451
  20
1687.808
  0
VERTEX
  8
MMIC_OverCoat
  10
124.48
  20
1687.952
  0
VERTEX
  8
MMIC_OverCoat
  10
123.5
  20
1688
  0
VERTEX
  8
MMIC_OverCoat
  10
53.5
  20
1688
  0
VERTEX
  8
MMIC_OverCoat
  10
52.52
  20
1687.952
  0
VERTEX
  8
MMIC_OverCoat
  10
51.549
  20
1687.808
  0
VERTEX
  8
MMIC_OverCoat
  10
50.597
  20
1687.569
  0
VERTEX
  8
MMIC_OverCoat
  10
49.673
  20
1687.239
  0
VERTEX
  8
MMIC_OverCoat
  10
48.786
  20
1686.819
  0
VERTEX
  8
MMIC_OverCoat
  10
47.944
  20
1686.315
  0
VERTEX
  8
MMIC_OverCoat
  10
47.156
  20
1685.73
  0
VERTEX
  8
MMIC_OverCoat
  10
46.429
  20
1685.071
  0
VERTEX
  8
MMIC_OverCoat
  10
45.77
  20
1684.344
  0
VERTEX
  8
MMIC_OverCoat
  10
45.185
  20
1683.556
  0
VERTEX
  8
MMIC_OverCoat
  10
44.681
  20
1682.714
  0
VERTEX
  8
MMIC_OverCoat
  10
44.261
  20
1681.827
  0
VERTEX
  8
MMIC_OverCoat
  10
43.931
  20
1680.903
  0
VERTEX
  8
MMIC_OverCoat
  10
43.692
  20
1679.951
  0
VERTEX
  8
MMIC_OverCoat
  10
43.548
  20
1678.98
  0
VERTEX
  8
MMIC_OverCoat
  10
43.5
  20
1678
  0
VERTEX
  8
MMIC_OverCoat
  10
43.5
  20
1634
  0
VERTEX
  8
MMIC_OverCoat
  10
43.548
  20
1633.02
  0
VERTEX
  8
MMIC_OverCoat
  10
43.692
  20
1632.049
  0
SEQEND
  0
POLYLINE
  8
MMIC_OverCoat
  70
1
  66
1
  0
VERTEX
  8
MMIC_OverCoat
  10
1866.931
  20
2274.597
  0
VERTEX
  8
MMIC_OverCoat
  10
1867.261
  20
2273.673
  0
VERTEX
  8
MMIC_OverCoat
  10
1867.681
  20
2272.786
  0
VERTEX
  8
MMIC_OverCoat
  10
1868.185
  20
2271.944
  0
VERTEX
  8
MMIC_OverCoat
  10
1868.77
  20
2271.156
  0
VERTEX
  8
MMIC_OverCoat
  10
1869.429
  20
2270.429
  0
VERTEX
  8
MMIC_OverCoat
  10
1870.156
  20
2269.77
  0
VERTEX
  8
MMIC_OverCoat
  10
1870.944
  20
2269.185
  0
VERTEX
  8
MMIC_OverCoat
  10
1871.786
  20
2268.681
  0
VERTEX
  8
MMIC_OverCoat
  10
1872.673
  20
2268.261
  0
VERTEX
  8
MMIC_OverCoat
  10
1873.597
  20
2267.931
  0
VERTEX
  8
MMIC_OverCoat
  10
1874.549
  20
2267.692
  0
VERTEX
  8
MMIC_OverCoat
  10
1875.52
  20
2267.548
  0
VERTEX
  8
MMIC_OverCoat
  10
1876.5
  20
2267.5
  0
VERTEX
  8
MMIC_OverCoat
  10
1946.5
  20
2267.5
  0
VERTEX
  8
MMIC_OverCoat
  10
1947.48
  20
2267.548
  0
VERTEX
  8
MMIC_OverCoat
  10
1948.451
  20
2267.692
  0
VERTEX
  8
MMIC_OverCoat
  10
1949.403
  20
2267.931
  0
VERTEX
  8
MMIC_OverCoat
  10
1950.327
  20
2268.261
  0
VERTEX
  8
MMIC_OverCoat
  10
1951.214
  20
2268.681
  0
VERTEX
  8
MMIC_OverCoat
  10
1952.056
  20
2269.185
  0
VERTEX
  8
MMIC_OverCoat
  10
1952.844
  20
2269.77
  0
VERTEX
  8
MMIC_OverCoat
  10
1953.571
  20
2270.429
  0
VERTEX
  8
MMIC_OverCoat
  10
1954.23
  20
2271.156
  0
VERTEX
  8
MMIC_OverCoat
  10
1954.815
  20
2271.944
  0
VERTEX
  8
MMIC_OverCoat
  10
1955.319
  20
2272.786
  0
VERTEX
  8
MMIC_OverCoat
  10
1955.739
  20
2273.673
  0
VERTEX
  8
MMIC_OverCoat
  10
1956.069
  20
2274.597
  0
VERTEX
  8
MMIC_OverCoat
  10
1956.308
  20
2275.549
  0
VERTEX
  8
MMIC_OverCoat
  10
1956.452
  20
2276.52
  0
VERTEX
  8
MMIC_OverCoat
  10
1956.5
  20
2277.5
  0
VERTEX
  8
MMIC_OverCoat
  10
1956.5
  20
2446.5
  0
VERTEX
  8
MMIC_OverCoat
  10
1956.452
  20
2447.48
  0
VERTEX
  8
MMIC_OverCoat
  10
1956.308
  20
2448.451
  0
VERTEX
  8
MMIC_OverCoat
  10
1956.069
  20
2449.403
  0
VERTEX
  8
MMIC_OverCoat
  10
1955.739
  20
2450.327
  0
VERTEX
  8
MMIC_OverCoat
  10
1955.319
  20
2451.214
  0
VERTEX
  8
MMIC_OverCoat
  10
1954.815
  20
2452.056
  0
VERTEX
  8
MMIC_OverCoat
  10
1954.23
  20
2452.844
  0
VERTEX
  8
MMIC_OverCoat
  10
1953.571
  20
2453.571
  0
VERTEX
  8
MMIC_OverCoat
  10
1952.844
  20
2454.23
  0
VERTEX
  8
MMIC_OverCoat
  10
1952.056
  20
2454.815
  0
VERTEX
  8
MMIC_OverCoat
  10
1951.214
  20
2455.319
  0
VERTEX
  8
MMIC_OverCoat
  10
1950.327
  20
2455.739
  0
VERTEX
  8
MMIC_OverCoat
  10
1949.403
  20
2456.069
  0
VERTEX
  8
MMIC_OverCoat
  10
1948.451
  20
2456.308
  0
VERTEX
  8
MMIC_OverCoat
  10
1947.48
  20
2456.452
  0
VERTEX
  8
MMIC_OverCoat
  10
1946.5
  20
2456.5
  0
VERTEX
  8
MMIC_OverCoat
  10
1876.5
  20
2456.5
  0
VERTEX
  8
MMIC_OverCoat
  10
1875.52
  20
2456.452
  0
VERTEX
  8
MMIC_OverCoat
  10
1874.549
  20
2456.308
  0
VERTEX
  8
MMIC_OverCoat
  10
1873.597
  20
2456.069
  0
VERTEX
  8
MMIC_OverCoat
  10
1872.673
  20
2455.739
  0
VERTEX
  8
MMIC_OverCoat
  10
1871.786
  20
2455.319
  0
VERTEX
  8
MMIC_OverCoat
  10
1870.944
  20
2454.815
  0
VERTEX
  8
MMIC_OverCoat
  10
1870.156
  20
2454.23
  0
VERTEX
  8
MMIC_OverCoat
  10
1869.429
  20
2453.571
  0
VERTEX
  8
MMIC_OverCoat
  10
1868.77
  20
2452.844
  0
VERTEX
  8
MMIC_OverCoat
  10
1868.185
  20
2452.056
  0
VERTEX
  8
MMIC_OverCoat
  10
1867.681
  20
2451.214
  0
VERTEX
  8
MMIC_OverCoat
  10
1867.261
  20
2450.327
  0
VERTEX
  8
MMIC_OverCoat
  10
1866.931
  20
2449.403
  0
VERTEX
  8
MMIC_OverCoat
  10
1866.692
  20
2448.451
  0
VERTEX
  8
MMIC_OverCoat
  10
1866.548
  20
2447.48
  0
VERTEX
  8
MMIC_OverCoat
  10
1866.5
  20
2446.5
  0
VERTEX
  8
MMIC_OverCoat
  10
1866.5
  20
2277.5
  0
VERTEX
  8
MMIC_OverCoat
  10
1866.548
  20
2276.52
  0
VERTEX
  8
MMIC_OverCoat
  10
1866.692
  20
2275.549
  0
SEQEND
  0
POLYLINE
  8
MMIC_OverCoat
  70
1
  66
1
  0
VERTEX
  8
MMIC_OverCoat
  10
1866.931
  20
50.597
  0
VERTEX
  8
MMIC_OverCoat
  10
1867.261
  20
49.673
  0
VERTEX
  8
MMIC_OverCoat
  10
1867.681
  20
48.786
  0
VERTEX
  8
MMIC_OverCoat
  10
1868.185
  20
47.944
  0
VERTEX
  8
MMIC_OverCoat
  10
1868.77
  20
47.156
  0
VERTEX
  8
MMIC_OverCoat
  10
1869.429
  20
46.429
  0
VERTEX
  8
MMIC_OverCoat
  10
1870.156
  20
45.77
  0
VERTEX
  8
MMIC_OverCoat
  10
1870.944
  20
45.185
  0
VERTEX
  8
MMIC_OverCoat
  10
1871.786
  20
44.681
  0
VERTEX
  8
MMIC_OverCoat
  10
1872.673
  20
44.261
  0
VERTEX
  8
MMIC_OverCoat
  10
1873.597
  20
43.931
  0
VERTEX
  8
MMIC_OverCoat
  10
1874.549
  20
43.692
  0
VERTEX
  8
MMIC_OverCoat
  10
1875.52
  20
43.548
  0
VERTEX
  8
MMIC_OverCoat
  10
1876.5
  20
43.5
  0
VERTEX
  8
MMIC_OverCoat
  10
1946.5
  20
43.5
  0
VERTEX
  8
MMIC_OverCoat
  10
1947.48
  20
43.548
  0
VERTEX
  8
MMIC_OverCoat
  10
1948.451
  20
43.692
  0
VERTEX
  8
MMIC_OverCoat
  10
1949.403
  20
43.931
  0
VERTEX
  8
MMIC_OverCoat
  10
1950.327
  20
44.261
  0
VERTEX
  8
MMIC_OverCoat
  10
1951.214
  20
44.681
  0
VERTEX
  8
MMIC_OverCoat
  10
1952.056
  20
45.185
  0
VERTEX
  8
MMIC_OverCoat
  10
1952.844
  20
45.77
  0
VERTEX
  8
MMIC_OverCoat
  10
1953.571
  20
46.429
  0
VERTEX
  8
MMIC_OverCoat
  10
1954.23
  20
47.156
  0
VERTEX
  8
MMIC_OverCoat
  10
1954.815
  20
47.944
  0
VERTEX
  8
MMIC_OverCoat
  10
1955.319
  20
48.786
  0
VERTEX
  8
MMIC_OverCoat
  10
1955.739
  20
49.673
  0
VERTEX
  8
MMIC_OverCoat
  10
1956.069
  20
50.597
  0
VERTEX
  8
MMIC_OverCoat
  10
1956.308
  20
51.549
  0
VERTEX
  8
MMIC_OverCoat
  10
1956.452
  20
52.52
  0
VERTEX
  8
MMIC_OverCoat
  10
1956.5
  20
53.5
  0
VERTEX
  8
MMIC_OverCoat
  10
1956.5
  20
222.5
  0
VERTEX
  8
MMIC_OverCoat
  10
1956.452
  20
223.48
  0
VERTEX
  8
MMIC_OverCoat
  10
1956.308
  20
224.451
  0
VERTEX
  8
MMIC_OverCoat
  10
1956.069
  20
225.403
  0
VERTEX
  8
MMIC_OverCoat
  10
1955.739
  20
226.327
  0
VERTEX
  8
MMIC_OverCoat
  10
1955.319
  20
227.214
  0
VERTEX
  8
MMIC_OverCoat
  10
1954.815
  20
228.056
  0
VERTEX
  8
MMIC_OverCoat
  10
1954.23
  20
228.844
  0
VERTEX
  8
MMIC_OverCoat
  10
1953.571
  20
229.571
  0
VERTEX
  8
MMIC_OverCoat
  10
1952.844
  20
230.23
  0
VERTEX
  8
MMIC_OverCoat
  10
1952.056
  20
230.815
  0
VERTEX
  8
MMIC_OverCoat
  10
1951.214
  20
231.319
  0
VERTEX
  8
MMIC_OverCoat
  10
1950.327
  20
231.739
  0
VERTEX
  8
MMIC_OverCoat
  10
1949.403
  20
232.069
  0
VERTEX
  8
MMIC_OverCoat
  10
1948.451
  20
232.308
  0
VERTEX
  8
MMIC_OverCoat
  10
1947.48
  20
232.452
  0
VERTEX
  8
MMIC_OverCoat
  10
1946.5
  20
232.5
  0
VERTEX
  8
MMIC_OverCoat
  10
1876.5
  20
232.5
  0
VERTEX
  8
MMIC_OverCoat
  10
1875.52
  20
232.452
  0
VERTEX
  8
MMIC_OverCoat
  10
1874.549
  20
232.308
  0
VERTEX
  8
MMIC_OverCoat
  10
1873.597
  20
232.069
  0
VERTEX
  8
MMIC_OverCoat
  10
1872.673
  20
231.739
  0
VERTEX
  8
MMIC_OverCoat
  10
1871.786
  20
231.319
  0
VERTEX
  8
MMIC_OverCoat
  10
1870.944
  20
230.815
  0
VERTEX
  8
MMIC_OverCoat
  10
1870.156
  20
230.23
  0
VERTEX
  8
MMIC_OverCoat
  10
1869.429
  20
229.571
  0
VERTEX
  8
MMIC_OverCoat
  10
1868.77
  20
228.844
  0
VERTEX
  8
MMIC_OverCoat
  10
1868.185
  20
228.056
  0
VERTEX
  8
MMIC_OverCoat
  10
1867.681
  20
227.214
  0
VERTEX
  8
MMIC_OverCoat
  10
1867.261
  20
226.327
  0
VERTEX
  8
MMIC_OverCoat
  10
1866.931
  20
225.403
  0
VERTEX
  8
MMIC_OverCoat
  10
1866.692
  20
224.451
  0
VERTEX
  8
MMIC_OverCoat
  10
1866.548
  20
223.48
  0
VERTEX
  8
MMIC_OverCoat
  10
1866.5
  20
222.5
  0
VERTEX
  8
MMIC_OverCoat
  10
1866.5
  20
53.5
  0
VERTEX
  8
MMIC_OverCoat
  10
1866.548
  20
52.52
  0
VERTEX
  8
MMIC_OverCoat
  10
1866.692
  20
51.549
  0
SEQEND
  0
POLYLINE
  8
MMIC_OverCoat
  70
1
  66
1
  0
VERTEX
  8
MMIC_OverCoat
  10
43.931
  20
1718.597
  0
VERTEX
  8
MMIC_OverCoat
  10
44.261
  20
1717.673
  0
VERTEX
  8
MMIC_OverCoat
  10
44.681
  20
1716.786
  0
VERTEX
  8
MMIC_OverCoat
  10
45.185
  20
1715.944
  0
VERTEX
  8
MMIC_OverCoat
  10
45.77
  20
1715.156
  0
VERTEX
  8
MMIC_OverCoat
  10
46.429
  20
1714.429
  0
VERTEX
  8
MMIC_OverCoat
  10
47.156
  20
1713.77
  0
VERTEX
  8
MMIC_OverCoat
  10
47.944
  20
1713.185
  0
VERTEX
  8
MMIC_OverCoat
  10
48.786
  20
1712.681
  0
VERTEX
  8
MMIC_OverCoat
  10
49.673
  20
1712.261
  0
VERTEX
  8
MMIC_OverCoat
  10
50.597
  20
1711.931
  0
VERTEX
  8
MMIC_OverCoat
  10
51.549
  20
1711.692
  0
VERTEX
  8
MMIC_OverCoat
  10
52.52
  20
1711.548
  0
VERTEX
  8
MMIC_OverCoat
  10
53.5
  20
1711.5
  0
VERTEX
  8
MMIC_OverCoat
  10
123.5
  20
1711.5
  0
VERTEX
  8
MMIC_OverCoat
  10
124.48
  20
1711.548
  0
VERTEX
  8
MMIC_OverCoat
  10
125.451
  20
1711.692
  0
VERTEX
  8
MMIC_OverCoat
  10
126.403
  20
1711.931
  0
VERTEX
  8
MMIC_OverCoat
  10
127.327
  20
1712.261
  0
VERTEX
  8
MMIC_OverCoat
  10
128.214
  20
1712.681
  0
VERTEX
  8
MMIC_OverCoat
  10
129.056
  20
1713.185
  0
VERTEX
  8
MMIC_OverCoat
  10
129.844
  20
1713.77
  0
VERTEX
  8
MMIC_OverCoat
  10
130.571
  20
1714.429
  0
VERTEX
  8
MMIC_OverCoat
  10
131.23
  20
1715.156
  0
VERTEX
  8
MMIC_OverCoat
  10
131.815
  20
1715.944
  0
VERTEX
  8
MMIC_OverCoat
  10
132.319
  20
1716.786
  0
VERTEX
  8
MMIC_OverCoat
  10
132.739
  20
1717.673
  0
VERTEX
  8
MMIC_OverCoat
  10
133.069
  20
1718.597
  0
VERTEX
  8
MMIC_OverCoat
  10
133.308
  20
1719.549
  0
VERTEX
  8
MMIC_OverCoat
  10
133.452
  20
1720.52
  0
VERTEX
  8
MMIC_OverCoat
  10
133.5
  20
1721.5
  0
VERTEX
  8
MMIC_OverCoat
  10
133.5
  20
1890.5
  0
VERTEX
  8
MMIC_OverCoat
  10
133.452
  20
1891.48
  0
VERTEX
  8
MMIC_OverCoat
  10
133.308
  20
1892.451
  0
VERTEX
  8
MMIC_OverCoat
  10
133.069
  20
1893.403
  0
VERTEX
  8
MMIC_OverCoat
  10
132.739
  20
1894.327
  0
VERTEX
  8
MMIC_OverCoat
  10
132.319
  20
1895.214
  0
VERTEX
  8
MMIC_OverCoat
  10
131.815
  20
1896.056
  0
VERTEX
  8
MMIC_OverCoat
  10
131.23
  20
1896.844
  0
VERTEX
  8
MMIC_OverCoat
  10
130.571
  20
1897.571
  0
VERTEX
  8
MMIC_OverCoat
  10
129.844
  20
1898.23
  0
VERTEX
  8
MMIC_OverCoat
  10
129.056
  20
1898.815
  0
VERTEX
  8
MMIC_OverCoat
  10
128.214
  20
1899.319
  0
VERTEX
  8
MMIC_OverCoat
  10
127.327
  20
1899.739
  0
VERTEX
  8
MMIC_OverCoat
  10
126.403
  20
1900.069
  0
VERTEX
  8
MMIC_OverCoat
  10
125.451
  20
1900.308
  0
VERTEX
  8
MMIC_OverCoat
  10
124.48
  20
1900.452
  0
VERTEX
  8
MMIC_OverCoat
  10
123.5
  20
1900.5
  0
VERTEX
  8
MMIC_OverCoat
  10
53.5
  20
1900.5
  0
VERTEX
  8
MMIC_OverCoat
  10
52.52
  20
1900.452
  0
VERTEX
  8
MMIC_OverCoat
  10
51.549
  20
1900.308
  0
VERTEX
  8
MMIC_OverCoat
  10
50.597
  20
1900.069
  0
VERTEX
  8
MMIC_OverCoat
  10
49.673
  20
1899.739
  0
VERTEX
  8
MMIC_OverCoat
  10
48.786
  20
1899.319
  0
VERTEX
  8
MMIC_OverCoat
  10
47.944
  20
1898.815
  0
VERTEX
  8
MMIC_OverCoat
  10
47.156
  20
1898.23
  0
VERTEX
  8
MMIC_OverCoat
  10
46.429
  20
1897.571
  0
VERTEX
  8
MMIC_OverCoat
  10
45.77
  20
1896.844
  0
VERTEX
  8
MMIC_OverCoat
  10
45.185
  20
1896.056
  0
VERTEX
  8
MMIC_OverCoat
  10
44.681
  20
1895.214
  0
VERTEX
  8
MMIC_OverCoat
  10
44.261
  20
1894.327
  0
VERTEX
  8
MMIC_OverCoat
  10
43.931
  20
1893.403
  0
VERTEX
  8
MMIC_OverCoat
  10
43.692
  20
1892.451
  0
VERTEX
  8
MMIC_OverCoat
  10
43.548
  20
1891.48
  0
VERTEX
  8
MMIC_OverCoat
  10
43.5
  20
1890.5
  0
VERTEX
  8
MMIC_OverCoat
  10
43.5
  20
1721.5
  0
VERTEX
  8
MMIC_OverCoat
  10
43.548
  20
1720.52
  0
VERTEX
  8
MMIC_OverCoat
  10
43.692
  20
1719.549
  0
SEQEND
  0
POLYLINE
  8
MMIC_OverCoat
  70
1
  66
1
  0
VERTEX
  8
MMIC_OverCoat
  10
43.931
  20
50.597
  0
VERTEX
  8
MMIC_OverCoat
  10
44.261
  20
49.673
  0
VERTEX
  8
MMIC_OverCoat
  10
44.681
  20
48.786
  0
VERTEX
  8
MMIC_OverCoat
  10
45.185
  20
47.944
  0
VERTEX
  8
MMIC_OverCoat
  10
45.77
  20
47.156
  0
VERTEX
  8
MMIC_OverCoat
  10
46.429
  20
46.429
  0
VERTEX
  8
MMIC_OverCoat
  10
47.156
  20
45.77
  0
VERTEX
  8
MMIC_OverCoat
  10
47.944
  20
45.185
  0
VERTEX
  8
MMIC_OverCoat
  10
48.786
  20
44.681
  0
VERTEX
  8
MMIC_OverCoat
  10
49.673
  20
44.261
  0
VERTEX
  8
MMIC_OverCoat
  10
50.597
  20
43.931
  0
VERTEX
  8
MMIC_OverCoat
  10
51.549
  20
43.692
  0
VERTEX
  8
MMIC_OverCoat
  10
52.52
  20
43.548
  0
VERTEX
  8
MMIC_OverCoat
  10
53.5
  20
43.5
  0
VERTEX
  8
MMIC_OverCoat
  10
123.5
  20
43.5
  0
VERTEX
  8
MMIC_OverCoat
  10
124.48
  20
43.548
  0
VERTEX
  8
MMIC_OverCoat
  10
125.451
  20
43.692
  0
VERTEX
  8
MMIC_OverCoat
  10
126.403
  20
43.931
  0
VERTEX
  8
MMIC_OverCoat
  10
127.327
  20
44.261
  0
VERTEX
  8
MMIC_OverCoat
  10
128.214
  20
44.681
  0
VERTEX
  8
MMIC_OverCoat
  10
129.056
  20
45.185
  0
VERTEX
  8
MMIC_OverCoat
  10
129.844
  20
45.77
  0
VERTEX
  8
MMIC_OverCoat
  10
130.571
  20
46.429
  0
VERTEX
  8
MMIC_OverCoat
  10
131.23
  20
47.156
  0
VERTEX
  8
MMIC_OverCoat
  10
131.815
  20
47.944
  0
VERTEX
  8
MMIC_OverCoat
  10
132.319
  20
48.786
  0
VERTEX
  8
MMIC_OverCoat
  10
132.739
  20
49.673
  0
VERTEX
  8
MMIC_OverCoat
  10
133.069
  20
50.597
  0
VERTEX
  8
MMIC_OverCoat
  10
133.308
  20
51.549
  0
VERTEX
  8
MMIC_OverCoat
  10
133.452
  20
52.52
  0
VERTEX
  8
MMIC_OverCoat
  10
133.5
  20
53.5
  0
VERTEX
  8
MMIC_OverCoat
  10
133.5
  20
222.5
  0
VERTEX
  8
MMIC_OverCoat
  10
133.452
  20
223.48
  0
VERTEX
  8
MMIC_OverCoat
  10
133.308
  20
224.451
  0
VERTEX
  8
MMIC_OverCoat
  10
133.069
  20
225.403
  0
VERTEX
  8
MMIC_OverCoat
  10
132.739
  20
226.327
  0
VERTEX
  8
MMIC_OverCoat
  10
132.319
  20
227.214
  0
VERTEX
  8
MMIC_OverCoat
  10
131.815
  20
228.056
  0
VERTEX
  8
MMIC_OverCoat
  10
131.23
  20
228.844
  0
VERTEX
  8
MMIC_OverCoat
  10
130.571
  20
229.571
  0
VERTEX
  8
MMIC_OverCoat
  10
129.844
  20
230.23
  0
VERTEX
  8
MMIC_OverCoat
  10
129.056
  20
230.815
  0
VERTEX
  8
MMIC_OverCoat
  10
128.214
  20
231.319
  0
VERTEX
  8
MMIC_OverCoat
  10
127.327
  20
231.739
  0
VERTEX
  8
MMIC_OverCoat
  10
126.403
  20
232.069
  0
VERTEX
  8
MMIC_OverCoat
  10
125.451
  20
232.308
  0
VERTEX
  8
MMIC_OverCoat
  10
124.48
  20
232.452
  0
VERTEX
  8
MMIC_OverCoat
  10
123.5
  20
232.5
  0
VERTEX
  8
MMIC_OverCoat
  10
53.5
  20
232.5
  0
VERTEX
  8
MMIC_OverCoat
  10
52.52
  20
232.452
  0
VERTEX
  8
MMIC_OverCoat
  10
51.549
  20
232.308
  0
VERTEX
  8
MMIC_OverCoat
  10
50.597
  20
232.069
  0
VERTEX
  8
MMIC_OverCoat
  10
49.673
  20
231.739
  0
VERTEX
  8
MMIC_OverCoat
  10
48.786
  20
231.319
  0
VERTEX
  8
MMIC_OverCoat
  10
47.944
  20
230.815
  0
VERTEX
  8
MMIC_OverCoat
  10
47.156
  20
230.23
  0
VERTEX
  8
MMIC_OverCoat
  10
46.429
  20
229.571
  0
VERTEX
  8
MMIC_OverCoat
  10
45.77
  20
228.844
  0
VERTEX
  8
MMIC_OverCoat
  10
45.185
  20
228.056
  0
VERTEX
  8
MMIC_OverCoat
  10
44.681
  20
227.214
  0
VERTEX
  8
MMIC_OverCoat
  10
44.261
  20
226.327
  0
VERTEX
  8
MMIC_OverCoat
  10
43.931
  20
225.403
  0
VERTEX
  8
MMIC_OverCoat
  10
43.692
  20
224.451
  0
VERTEX
  8
MMIC_OverCoat
  10
43.548
  20
223.48
  0
VERTEX
  8
MMIC_OverCoat
  10
43.5
  20
222.5
  0
VERTEX
  8
MMIC_OverCoat
  10
43.5
  20
53.5
  0
VERTEX
  8
MMIC_OverCoat
  10
43.548
  20
52.52
  0
VERTEX
  8
MMIC_OverCoat
  10
43.692
  20
51.549
  0
SEQEND
  0
POLYLINE
  8
MMIC_Via
  70
1
  66
1
  0
VERTEX
  8
MMIC_Via
  10
1875
  20
2130.7
  0
VERTEX
  8
MMIC_Via
  10
1875.072
  20
2129.23
  0
VERTEX
  8
MMIC_Via
  10
1875.288
  20
2127.774
  0
VERTEX
  8
MMIC_Via
  10
1875.646
  20
2126.346
  0
VERTEX
  8
MMIC_Via
  10
1876.142
  20
2124.96
  0
VERTEX
  8
MMIC_Via
  10
1876.771
  20
2123.629
  0
VERTEX
  8
MMIC_Via
  10
1877.528
  20
2122.366
  0
VERTEX
  8
MMIC_Via
  10
1878.405
  20
2121.184
  0
VERTEX
  8
MMIC_Via
  10
1879.393
  20
2120.093
  0
VERTEX
  8
MMIC_Via
  10
1880.484
  20
2119.105
  0
VERTEX
  8
MMIC_Via
  10
1881.666
  20
2118.228
  0
VERTEX
  8
MMIC_Via
  10
1882.929
  20
2117.471
  0
VERTEX
  8
MMIC_Via
  10
1884.26
  20
2116.842
  0
VERTEX
  8
MMIC_Via
  10
1885.646
  20
2116.346
  0
VERTEX
  8
MMIC_Via
  10
1887.074
  20
2115.988
  0
VERTEX
  8
MMIC_Via
  10
1888.53
  20
2115.772
  0
VERTEX
  8
MMIC_Via
  10
1890
  20
2115.7
  0
VERTEX
  8
MMIC_Via
  10
1920
  20
2115.7
  0
VERTEX
  8
MMIC_Via
  10
1921.47
  20
2115.772
  0
VERTEX
  8
MMIC_Via
  10
1922.926
  20
2115.988
  0
VERTEX
  8
MMIC_Via
  10
1924.354
  20
2116.346
  0
VERTEX
  8
MMIC_Via
  10
1925.74
  20
2116.842
  0
VERTEX
  8
MMIC_Via
  10
1927.071
  20
2117.471
  0
VERTEX
  8
MMIC_Via
  10
1928.334
  20
2118.228
  0
VERTEX
  8
MMIC_Via
  10
1929.516
  20
2119.105
  0
VERTEX
  8
MMIC_Via
  10
1930.607
  20
2120.093
  0
VERTEX
  8
MMIC_Via
  10
1931.595
  20
2121.184
  0
VERTEX
  8
MMIC_Via
  10
1932.472
  20
2122.366
  0
VERTEX
  8
MMIC_Via
  10
1933.229
  20
2123.629
  0
VERTEX
  8
MMIC_Via
  10
1933.858
  20
2124.96
  0
VERTEX
  8
MMIC_Via
  10
1934.354
  20
2126.346
  0
VERTEX
  8
MMIC_Via
  10
1934.712
  20
2127.774
  0
VERTEX
  8
MMIC_Via
  10
1934.928
  20
2129.23
  0
VERTEX
  8
MMIC_Via
  10
1935
  20
2130.7
  0
VERTEX
  8
MMIC_Via
  10
1934.928
  20
2132.17
  0
VERTEX
  8
MMIC_Via
  10
1934.712
  20
2133.626
  0
VERTEX
  8
MMIC_Via
  10
1934.354
  20
2135.054
  0
VERTEX
  8
MMIC_Via
  10
1933.858
  20
2136.44
  0
VERTEX
  8
MMIC_Via
  10
1933.229
  20
2137.771
  0
VERTEX
  8
MMIC_Via
  10
1932.472
  20
2139.034
  0
VERTEX
  8
MMIC_Via
  10
1931.595
  20
2140.216
  0
VERTEX
  8
MMIC_Via
  10
1930.607
  20
2141.307
  0
VERTEX
  8
MMIC_Via
  10
1929.516
  20
2142.295
  0
VERTEX
  8
MMIC_Via
  10
1928.334
  20
2143.172
  0
VERTEX
  8
MMIC_Via
  10
1927.071
  20
2143.929
  0
VERTEX
  8
MMIC_Via
  10
1925.74
  20
2144.558
  0
VERTEX
  8
MMIC_Via
  10
1924.354
  20
2145.054
  0
VERTEX
  8
MMIC_Via
  10
1922.926
  20
2145.412
  0
VERTEX
  8
MMIC_Via
  10
1921.47
  20
2145.628
  0
VERTEX
  8
MMIC_Via
  10
1920
  20
2145.7
  0
VERTEX
  8
MMIC_Via
  10
1890
  20
2145.7
  0
VERTEX
  8
MMIC_Via
  10
1888.53
  20
2145.628
  0
VERTEX
  8
MMIC_Via
  10
1887.074
  20
2145.412
  0
VERTEX
  8
MMIC_Via
  10
1885.646
  20
2145.054
  0
VERTEX
  8
MMIC_Via
  10
1884.26
  20
2144.558
  0
VERTEX
  8
MMIC_Via
  10
1882.929
  20
2143.929
  0
VERTEX
  8
MMIC_Via
  10
1881.666
  20
2143.172
  0
VERTEX
  8
MMIC_Via
  10
1880.484
  20
2142.295
  0
VERTEX
  8
MMIC_Via
  10
1879.393
  20
2141.307
  0
VERTEX
  8
MMIC_Via
  10
1878.405
  20
2140.216
  0
VERTEX
  8
MMIC_Via
  10
1877.528
  20
2139.034
  0
VERTEX
  8
MMIC_Via
  10
1876.771
  20
2137.771
  0
VERTEX
  8
MMIC_Via
  10
1876.142
  20
2136.44
  0
VERTEX
  8
MMIC_Via
  10
1875.646
  20
2135.054
  0
VERTEX
  8
MMIC_Via
  10
1875.288
  20
2133.626
  0
VERTEX
  8
MMIC_Via
  10
1875.072
  20
2132.17
  0
SEQEND
  0
POLYLINE
  8
MMIC_Via
  70
1
  66
1
  0
VERTEX
  8
MMIC_Via
  10
65
  20
1574.7
  0
VERTEX
  8
MMIC_Via
  10
65.072
  20
1573.23
  0
VERTEX
  8
MMIC_Via
  10
65.288
  20
1571.774
  0
VERTEX
  8
MMIC_Via
  10
65.646
  20
1570.346
  0
VERTEX
  8
MMIC_Via
  10
66.142
  20
1568.96
  0
VERTEX
  8
MMIC_Via
  10
66.771
  20
1567.629
  0
VERTEX
  8
MMIC_Via
  10
67.528
  20
1566.366
  0
VERTEX
  8
MMIC_Via
  10
68.405
  20
1565.184
  0
VERTEX
  8
MMIC_Via
  10
69.393
  20
1564.093
  0
VERTEX
  8
MMIC_Via
  10
70.484
  20
1563.105
  0
VERTEX
  8
MMIC_Via
  10
71.666
  20
1562.228
  0
VERTEX
  8
MMIC_Via
  10
72.929
  20
1561.471
  0
VERTEX
  8
MMIC_Via
  10
74.26
  20
1560.842
  0
VERTEX
  8
MMIC_Via
  10
75.646
  20
1560.346
  0
VERTEX
  8
MMIC_Via
  10
77.074
  20
1559.988
  0
VERTEX
  8
MMIC_Via
  10
78.53
  20
1559.772
  0
VERTEX
  8
MMIC_Via
  10
80
  20
1559.7
  0
VERTEX
  8
MMIC_Via
  10
110
  20
1559.7
  0
VERTEX
  8
MMIC_Via
  10
111.47
  20
1559.772
  0
VERTEX
  8
MMIC_Via
  10
112.926
  20
1559.988
  0
VERTEX
  8
MMIC_Via
  10
114.354
  20
1560.346
  0
VERTEX
  8
MMIC_Via
  10
115.74
  20
1560.842
  0
VERTEX
  8
MMIC_Via
  10
117.071
  20
1561.471
  0
VERTEX
  8
MMIC_Via
  10
118.334
  20
1562.228
  0
VERTEX
  8
MMIC_Via
  10
119.516
  20
1563.105
  0
VERTEX
  8
MMIC_Via
  10
120.607
  20
1564.093
  0
VERTEX
  8
MMIC_Via
  10
121.595
  20
1565.184
  0
VERTEX
  8
MMIC_Via
  10
122.472
  20
1566.366
  0
VERTEX
  8
MMIC_Via
  10
123.229
  20
1567.629
  0
VERTEX
  8
MMIC_Via
  10
123.858
  20
1568.96
  0
VERTEX
  8
MMIC_Via
  10
124.354
  20
1570.346
  0
VERTEX
  8
MMIC_Via
  10
124.712
  20
1571.774
  0
VERTEX
  8
MMIC_Via
  10
124.928
  20
1573.23
  0
VERTEX
  8
MMIC_Via
  10
125
  20
1574.7
  0
VERTEX
  8
MMIC_Via
  10
124.928
  20
1576.17
  0
VERTEX
  8
MMIC_Via
  10
124.712
  20
1577.626
  0
VERTEX
  8
MMIC_Via
  10
124.354
  20
1579.054
  0
VERTEX
  8
MMIC_Via
  10
123.858
  20
1580.44
  0
VERTEX
  8
MMIC_Via
  10
123.229
  20
1581.771
  0
VERTEX
  8
MMIC_Via
  10
122.472
  20
1583.034
  0
VERTEX
  8
MMIC_Via
  10
121.595
  20
1584.216
  0
VERTEX
  8
MMIC_Via
  10
120.607
  20
1585.307
  0
VERTEX
  8
MMIC_Via
  10
119.516
  20
1586.295
  0
VERTEX
  8
MMIC_Via
  10
118.334
  20
1587.172
  0
VERTEX
  8
MMIC_Via
  10
117.071
  20
1587.929
  0
VERTEX
  8
MMIC_Via
  10
115.74
  20
1588.558
  0
VERTEX
  8
MMIC_Via
  10
114.354
  20
1589.054
  0
VERTEX
  8
MMIC_Via
  10
112.926
  20
1589.412
  0
VERTEX
  8
MMIC_Via
  10
111.47
  20
1589.628
  0
VERTEX
  8
MMIC_Via
  10
110
  20
1589.7
  0
VERTEX
  8
MMIC_Via
  10
80
  20
1589.7
  0
VERTEX
  8
MMIC_Via
  10
78.53
  20
1589.628
  0
VERTEX
  8
MMIC_Via
  10
77.074
  20
1589.412
  0
VERTEX
  8
MMIC_Via
  10
75.646
  20
1589.054
  0
VERTEX
  8
MMIC_Via
  10
74.26
  20
1588.558
  0
VERTEX
  8
MMIC_Via
  10
72.929
  20
1587.929
  0
VERTEX
  8
MMIC_Via
  10
71.666
  20
1587.172
  0
VERTEX
  8
MMIC_Via
  10
70.484
  20
1586.295
  0
VERTEX
  8
MMIC_Via
  10
69.393
  20
1585.307
  0
VERTEX
  8
MMIC_Via
  10
68.405
  20
1584.216
  0
VERTEX
  8
MMIC_Via
  10
67.528
  20
1583.034
  0
VERTEX
  8
MMIC_Via
  10
66.771
  20
1581.771
  0
VERTEX
  8
MMIC_Via
  10
66.142
  20
1580.44
  0
VERTEX
  8
MMIC_Via
  10
65.646
  20
1579.054
  0
VERTEX
  8
MMIC_Via
  10
65.288
  20
1577.626
  0
VERTEX
  8
MMIC_Via
  10
65.072
  20
1576.17
  0
SEQEND
  0
POLYLINE
  8
MMIC_Via
  70
1
  66
1
  0
VERTEX
  8
MMIC_Via
  10
1784.7
  20
288
  0
VERTEX
  8
MMIC_Via
  10
1784.772
  20
286.53
  0
VERTEX
  8
MMIC_Via
  10
1784.988
  20
285.074
  0
VERTEX
  8
MMIC_Via
  10
1785.346
  20
283.646
  0
VERTEX
  8
MMIC_Via
  10
1785.842
  20
282.26
  0
VERTEX
  8
MMIC_Via
  10
1786.471
  20
280.929
  0
VERTEX
  8
MMIC_Via
  10
1787.228
  20
279.666
  0
VERTEX
  8
MMIC_Via
  10
1788.105
  20
278.484
  0
VERTEX
  8
MMIC_Via
  10
1789.093
  20
277.393
  0
VERTEX
  8
MMIC_Via
  10
1790.184
  20
276.405
  0
VERTEX
  8
MMIC_Via
  10
1791.366
  20
275.528
  0
VERTEX
  8
MMIC_Via
  10
1792.629
  20
274.771
  0
VERTEX
  8
MMIC_Via
  10
1793.96
  20
274.142
  0
VERTEX
  8
MMIC_Via
  10
1795.346
  20
273.646
  0
VERTEX
  8
MMIC_Via
  10
1796.774
  20
273.288
  0
VERTEX
  8
MMIC_Via
  10
1798.23
  20
273.072
  0
VERTEX
  8
MMIC_Via
  10
1799.7
  20
273
  0
VERTEX
  8
MMIC_Via
  10
1829.7
  20
273
  0
VERTEX
  8
MMIC_Via
  10
1831.17
  20
273.072
  0
VERTEX
  8
MMIC_Via
  10
1832.626
  20
273.288
  0
VERTEX
  8
MMIC_Via
  10
1834.054
  20
273.646
  0
VERTEX
  8
MMIC_Via
  10
1835.44
  20
274.142
  0
VERTEX
  8
MMIC_Via
  10
1836.771
  20
274.771
  0
VERTEX
  8
MMIC_Via
  10
1838.034
  20
275.528
  0
VERTEX
  8
MMIC_Via
  10
1839.216
  20
276.405
  0
VERTEX
  8
MMIC_Via
  10
1840.307
  20
277.393
  0
VERTEX
  8
MMIC_Via
  10
1841.295
  20
278.484
  0
VERTEX
  8
MMIC_Via
  10
1842.172
  20
279.666
  0
VERTEX
  8
MMIC_Via
  10
1842.929
  20
280.929
  0
VERTEX
  8
MMIC_Via
  10
1843.558
  20
282.26
  0
VERTEX
  8
MMIC_Via
  10
1844.054
  20
283.646
  0
VERTEX
  8
MMIC_Via
  10
1844.412
  20
285.074
  0
VERTEX
  8
MMIC_Via
  10
1844.628
  20
286.53
  0
VERTEX
  8
MMIC_Via
  10
1844.7
  20
288
  0
VERTEX
  8
MMIC_Via
  10
1844.628
  20
289.47
  0
VERTEX
  8
MMIC_Via
  10
1844.412
  20
290.926
  0
VERTEX
  8
MMIC_Via
  10
1844.054
  20
292.354
  0
VERTEX
  8
MMIC_Via
  10
1843.558
  20
293.74
  0
VERTEX
  8
MMIC_Via
  10
1842.929
  20
295.071
  0
VERTEX
  8
MMIC_Via
  10
1842.172
  20
296.334
  0
VERTEX
  8
MMIC_Via
  10
1841.295
  20
297.516
  0
VERTEX
  8
MMIC_Via
  10
1840.307
  20
298.607
  0
VERTEX
  8
MMIC_Via
  10
1839.216
  20
299.595
  0
VERTEX
  8
MMIC_Via
  10
1838.034
  20
300.472
  0
VERTEX
  8
MMIC_Via
  10
1836.771
  20
301.229
  0
VERTEX
  8
MMIC_Via
  10
1835.44
  20
301.858
  0
VERTEX
  8
MMIC_Via
  10
1834.054
  20
302.354
  0
VERTEX
  8
MMIC_Via
  10
1832.626
  20
302.712
  0
VERTEX
  8
MMIC_Via
  10
1831.17
  20
302.928
  0
VERTEX
  8
MMIC_Via
  10
1829.7
  20
303
  0
VERTEX
  8
MMIC_Via
  10
1799.7
  20
303
  0
VERTEX
  8
MMIC_Via
  10
1798.23
  20
302.928
  0
VERTEX
  8
MMIC_Via
  10
1796.774
  20
302.712
  0
VERTEX
  8
MMIC_Via
  10
1795.346
  20
302.354
  0
VERTEX
  8
MMIC_Via
  10
1793.96
  20
301.858
  0
VERTEX
  8
MMIC_Via
  10
1792.629
  20
301.229
  0
VERTEX
  8
MMIC_Via
  10
1791.366
  20
300.472
  0
VERTEX
  8
MMIC_Via
  10
1790.184
  20
299.595
  0
VERTEX
  8
MMIC_Via
  10
1789.093
  20
298.607
  0
VERTEX
  8
MMIC_Via
  10
1788.105
  20
297.516
  0
VERTEX
  8
MMIC_Via
  10
1787.228
  20
296.334
  0
VERTEX
  8
MMIC_Via
  10
1786.471
  20
295.071
  0
VERTEX
  8
MMIC_Via
  10
1785.842
  20
293.74
  0
VERTEX
  8
MMIC_Via
  10
1785.346
  20
292.354
  0
VERTEX
  8
MMIC_Via
  10
1784.988
  20
290.926
  0
VERTEX
  8
MMIC_Via
  10
1784.772
  20
289.47
  0
SEQEND
  0
POLYLINE
  8
MMIC_Via
  70
1
  66
1
  0
VERTEX
  8
MMIC_Via
  10
385.8
  20
84.3
  0
VERTEX
  8
MMIC_Via
  10
385.872
  20
82.83
  0
VERTEX
  8
MMIC_Via
  10
386.088
  20
81.374
  0
VERTEX
  8
MMIC_Via
  10
386.446
  20
79.946
  0
VERTEX
  8
MMIC_Via
  10
386.942
  20
78.56
  0
VERTEX
  8
MMIC_Via
  10
387.571
  20
77.229
  0
VERTEX
  8
MMIC_Via
  10
388.328
  20
75.966
  0
VERTEX
  8
MMIC_Via
  10
389.205
  20
74.784
  0
VERTEX
  8
MMIC_Via
  10
390.193
  20
73.693
  0
VERTEX
  8
MMIC_Via
  10
391.284
  20
72.705
  0
VERTEX
  8
MMIC_Via
  10
392.466
  20
71.828
  0
VERTEX
  8
MMIC_Via
  10
393.729
  20
71.071
  0
VERTEX
  8
MMIC_Via
  10
395.06
  20
70.442
  0
VERTEX
  8
MMIC_Via
  10
396.446
  20
69.946
  0
VERTEX
  8
MMIC_Via
  10
397.874
  20
69.588
  0
VERTEX
  8
MMIC_Via
  10
399.33
  20
69.372
  0
VERTEX
  8
MMIC_Via
  10
400.8
  20
69.3
  0
VERTEX
  8
MMIC_Via
  10
402.27
  20
69.372
  0
VERTEX
  8
MMIC_Via
  10
403.726
  20
69.588
  0
VERTEX
  8
MMIC_Via
  10
405.154
  20
69.946
  0
VERTEX
  8
MMIC_Via
  10
406.54
  20
70.442
  0
VERTEX
  8
MMIC_Via
  10
407.871
  20
71.071
  0
VERTEX
  8
MMIC_Via
  10
409.134
  20
71.828
  0
VERTEX
  8
MMIC_Via
  10
410.316
  20
72.705
  0
VERTEX
  8
MMIC_Via
  10
411.407
  20
73.693
  0
VERTEX
  8
MMIC_Via
  10
412.395
  20
74.784
  0
VERTEX
  8
MMIC_Via
  10
413.272
  20
75.966
  0
VERTEX
  8
MMIC_Via
  10
414.029
  20
77.229
  0
VERTEX
  8
MMIC_Via
  10
414.658
  20
78.56
  0
VERTEX
  8
MMIC_Via
  10
415.154
  20
79.946
  0
VERTEX
  8
MMIC_Via
  10
415.512
  20
81.374
  0
VERTEX
  8
MMIC_Via
  10
415.728
  20
82.83
  0
VERTEX
  8
MMIC_Via
  10
415.8
  20
84.3
  0
VERTEX
  8
MMIC_Via
  10
415.8
  20
114.3
  0
VERTEX
  8
MMIC_Via
  10
415.728
  20
115.77
  0
VERTEX
  8
MMIC_Via
  10
415.512
  20
117.226
  0
VERTEX
  8
MMIC_Via
  10
415.154
  20
118.654
  0
VERTEX
  8
MMIC_Via
  10
414.658
  20
120.04
  0
VERTEX
  8
MMIC_Via
  10
414.029
  20
121.371
  0
VERTEX
  8
MMIC_Via
  10
413.272
  20
122.634
  0
VERTEX
  8
MMIC_Via
  10
412.395
  20
123.816
  0
VERTEX
  8
MMIC_Via
  10
411.407
  20
124.907
  0
VERTEX
  8
MMIC_Via
  10
410.316
  20
125.895
  0
VERTEX
  8
MMIC_Via
  10
409.134
  20
126.772
  0
VERTEX
  8
MMIC_Via
  10
407.871
  20
127.529
  0
VERTEX
  8
MMIC_Via
  10
406.54
  20
128.158
  0
VERTEX
  8
MMIC_Via
  10
405.154
  20
128.654
  0
VERTEX
  8
MMIC_Via
  10
403.726
  20
129.012
  0
VERTEX
  8
MMIC_Via
  10
402.27
  20
129.228
  0
VERTEX
  8
MMIC_Via
  10
400.8
  20
129.3
  0
VERTEX
  8
MMIC_Via
  10
399.33
  20
129.228
  0
VERTEX
  8
MMIC_Via
  10
397.874
  20
129.012
  0
VERTEX
  8
MMIC_Via
  10
396.446
  20
128.654
  0
VERTEX
  8
MMIC_Via
  10
395.06
  20
128.158
  0
VERTEX
  8
MMIC_Via
  10
393.729
  20
127.529
  0
VERTEX
  8
MMIC_Via
  10
392.466
  20
126.772
  0
VERTEX
  8
MMIC_Via
  10
391.284
  20
125.895
  0
VERTEX
  8
MMIC_Via
  10
390.193
  20
124.907
  0
VERTEX
  8
MMIC_Via
  10
389.205
  20
123.816
  0
VERTEX
  8
MMIC_Via
  10
388.328
  20
122.634
  0
VERTEX
  8
MMIC_Via
  10
387.571
  20
121.371
  0
VERTEX
  8
MMIC_Via
  10
386.942
  20
120.04
  0
VERTEX
  8
MMIC_Via
  10
386.446
  20
118.654
  0
VERTEX
  8
MMIC_Via
  10
386.088
  20
117.226
  0
VERTEX
  8
MMIC_Via
  10
385.872
  20
115.77
  0
VERTEX
  8
MMIC_Via
  10
385.8
  20
114.3
  0
SEQEND
  0
POLYLINE
  8
MMIC_Via
  70
1
  66
1
  0
VERTEX
  8
MMIC_Via
  10
385.8
  20
199.3
  0
VERTEX
  8
MMIC_Via
  10
385.872
  20
197.83
  0
VERTEX
  8
MMIC_Via
  10
386.088
  20
196.374
  0
VERTEX
  8
MMIC_Via
  10
386.446
  20
194.946
  0
VERTEX
  8
MMIC_Via
  10
386.942
  20
193.56
  0
VERTEX
  8
MMIC_Via
  10
387.571
  20
192.229
  0
VERTEX
  8
MMIC_Via
  10
388.328
  20
190.966
  0
VERTEX
  8
MMIC_Via
  10
389.205
  20
189.784
  0
VERTEX
  8
MMIC_Via
  10
390.193
  20
188.693
  0
VERTEX
  8
MMIC_Via
  10
391.284
  20
187.705
  0
VERTEX
  8
MMIC_Via
  10
392.466
  20
186.828
  0
VERTEX
  8
MMIC_Via
  10
393.729
  20
186.071
  0
VERTEX
  8
MMIC_Via
  10
395.06
  20
185.442
  0
VERTEX
  8
MMIC_Via
  10
396.446
  20
184.946
  0
VERTEX
  8
MMIC_Via
  10
397.874
  20
184.588
  0
VERTEX
  8
MMIC_Via
  10
399.33
  20
184.372
  0
VERTEX
  8
MMIC_Via
  10
400.8
  20
184.3
  0
VERTEX
  8
MMIC_Via
  10
402.27
  20
184.372
  0
VERTEX
  8
MMIC_Via
  10
403.726
  20
184.588
  0
VERTEX
  8
MMIC_Via
  10
405.154
  20
184.946
  0
VERTEX
  8
MMIC_Via
  10
406.54
  20
185.442
  0
VERTEX
  8
MMIC_Via
  10
407.871
  20
186.071
  0
VERTEX
  8
MMIC_Via
  10
409.134
  20
186.828
  0
VERTEX
  8
MMIC_Via
  10
410.316
  20
187.705
  0
VERTEX
  8
MMIC_Via
  10
411.407
  20
188.693
  0
VERTEX
  8
MMIC_Via
  10
412.395
  20
189.784
  0
VERTEX
  8
MMIC_Via
  10
413.272
  20
190.966
  0
VERTEX
  8
MMIC_Via
  10
414.029
  20
192.229
  0
VERTEX
  8
MMIC_Via
  10
414.658
  20
193.56
  0
VERTEX
  8
MMIC_Via
  10
415.154
  20
194.946
  0
VERTEX
  8
MMIC_Via
  10
415.512
  20
196.374
  0
VERTEX
  8
MMIC_Via
  10
415.728
  20
197.83
  0
VERTEX
  8
MMIC_Via
  10
415.8
  20
199.3
  0
VERTEX
  8
MMIC_Via
  10
415.8
  20
229.3
  0
VERTEX
  8
MMIC_Via
  10
415.728
  20
230.77
  0
VERTEX
  8
MMIC_Via
  10
415.512
  20
232.226
  0
VERTEX
  8
MMIC_Via
  10
415.154
  20
233.654
  0
VERTEX
  8
MMIC_Via
  10
414.658
  20
235.04
  0
VERTEX
  8
MMIC_Via
  10
414.029
  20
236.371
  0
VERTEX
  8
MMIC_Via
  10
413.272
  20
237.634
  0
VERTEX
  8
MMIC_Via
  10
412.395
  20
238.816
  0
VERTEX
  8
MMIC_Via
  10
411.407
  20
239.907
  0
VERTEX
  8
MMIC_Via
  10
410.316
  20
240.895
  0
VERTEX
  8
MMIC_Via
  10
409.134
  20
241.772
  0
VERTEX
  8
MMIC_Via
  10
407.871
  20
242.529
  0
VERTEX
  8
MMIC_Via
  10
406.54
  20
243.158
  0
VERTEX
  8
MMIC_Via
  10
405.154
  20
243.654
  0
VERTEX
  8
MMIC_Via
  10
403.726
  20
244.012
  0
VERTEX
  8
MMIC_Via
  10
402.27
  20
244.228
  0
VERTEX
  8
MMIC_Via
  10
400.8
  20
244.3
  0
VERTEX
  8
MMIC_Via
  10
399.33
  20
244.228
  0
VERTEX
  8
MMIC_Via
  10
397.874
  20
244.012
  0
VERTEX
  8
MMIC_Via
  10
396.446
  20
243.654
  0
VERTEX
  8
MMIC_Via
  10
395.06
  20
243.158
  0
VERTEX
  8
MMIC_Via
  10
393.729
  20
242.529
  0
VERTEX
  8
MMIC_Via
  10
392.466
  20
241.772
  0
VERTEX
  8
MMIC_Via
  10
391.284
  20
240.895
  0
VERTEX
  8
MMIC_Via
  10
390.193
  20
239.907
  0
VERTEX
  8
MMIC_Via
  10
389.205
  20
238.816
  0
VERTEX
  8
MMIC_Via
  10
388.328
  20
237.634
  0
VERTEX
  8
MMIC_Via
  10
387.571
  20
236.371
  0
VERTEX
  8
MMIC_Via
  10
386.942
  20
235.04
  0
VERTEX
  8
MMIC_Via
  10
386.446
  20
233.654
  0
VERTEX
  8
MMIC_Via
  10
386.088
  20
232.226
  0
VERTEX
  8
MMIC_Via
  10
385.872
  20
230.77
  0
VERTEX
  8
MMIC_Via
  10
385.8
  20
229.3
  0
SEQEND
  0
POLYLINE
  8
MMIC_Die
  70
1
  66
1
  0
VERTEX
  8
MMIC_Die
  10
0
  20
0
  0
VERTEX
  8
MMIC_Die
  10
2000
  20
0
  0
VERTEX
  8
MMIC_Die
  10
2000
  20
2500
  0
VERTEX
  8
MMIC_Die
  10
0
  20
2500
  0
SEQEND
  0
ENDSEC
  0
EOF
