  0
SECTION
  2
HEADER
  9
$ACADVER
  1
AC1009
  9
$INSUNITS
  70
13
  9
$EXTMIN
  10
0
  20
0
  9
$EXTMAX
  10
3000
  20
2000
  0
ENDSEC
  0
SECTION
  2
TABLES
  0
TABLE
  2
LTYPE
  70
1
  0
LTYPE
  2
CONTINUOUS
  70
64
  3
Solid line
  72
65
  73
0
  40
0
  0
ENDTAB
  0
TABLE
  2
LAYER
  70
5
  0
LAYER
  2
0_2
  70
0
  62
6
  6
CONTINUOUS
  0
LAYER
  2
MMIC_Die
  70
0
  62
9
  6
CONTINUOUS
  0
LAYER
  2
0_1
  70
0
  62
1
  6
CONTINUOUS
  0
LAYER
  2
0_5
  70
0
  62
136
  6
CONTINUOUS
  0
LAYER
  2
MMIC_Label
  70
0
  62
138
  6
CONTINUOUS
  0
ENDTAB
  0
ENDSEC
  0
SECTION
  2
BLOCKS
  0
ENDSEC
  0
SECTION
  2
ENTITIES
  0
POLYLINE
  8
0_2
  70
1
  66
1
  0
VERTEX
  8
0_2
  10
1943
  20
229
  0
VERTEX
  8
0_2
  10
1942.928
  20
227.53
  0
VERTEX
  8
0_2
  10
1942.712
  20
226.074
  0
VERTEX
  8
0_2
  10
1942.354
  20
224.646
  0
VERTEX
  8
0_2
  10
1941.858
  20
223.26
  0
VERTEX
  8
0_2
  10
1941.229
  20
221.929
  0
VERTEX
  8
0_2
  10
1940.472
  20
220.666
  0
VERTEX
  8
0_2
  10
1939.595
  20
219.484
  0
VERTEX
  8
0_2
  10
1938.607
  20
218.393
  0
VERTEX
  8
0_2
  10
1937.516
  20
217.405
  0
VERTEX
  8
0_2
  10
1936.334
  20
216.528
  0
VERTEX
  8
0_2
  10
1935.071
  20
215.771
  0
VERTEX
  8
0_2
  10
1933.74
  20
215.142
  0
VERTEX
  8
0_2
  10
1932.354
  20
214.646
  0
VERTEX
  8
0_2
  10
1930.926
  20
214.288
  0
VERTEX
  8
0_2
  10
1929.47
  20
214.072
  0
VERTEX
  8
0_2
  10
1928
  20
214
  0
VERTEX
  8
0_2
  10
1926.53
  20
214.072
  0
VERTEX
  8
0_2
  10
1925.074
  20
214.288
  0
VERTEX
  8
0_2
  10
1923.646
  20
214.646
  0
VERTEX
  8
0_2
  10
1922.26
  20
215.142
  0
VERTEX
  8
0_2
  10
1920.929
  20
215.771
  0
VERTEX
  8
0_2
  10
1919.666
  20
216.528
  0
VERTEX
  8
0_2
  10
1918.484
  20
217.405
  0
VERTEX
  8
0_2
  10
1917.393
  20
218.393
  0
VERTEX
  8
0_2
  10
1916.405
  20
219.484
  0
VERTEX
  8
0_2
  10
1915.528
  20
220.666
  0
VERTEX
  8
0_2
  10
1914.771
  20
221.929
  0
VERTEX
  8
0_2
  10
1914.142
  20
223.26
  0
VERTEX
  8
0_2
  10
1913.646
  20
224.646
  0
VERTEX
  8
0_2
  10
1913.288
  20
226.074
  0
VERTEX
  8
0_2
  10
1913.072
  20
227.53
  0
VERTEX
  8
0_2
  10
1913
  20
229
  0
VERTEX
  8
0_2
  10
1913.072
  20
230.47
  0
VERTEX
  8
0_2
  10
1913.288
  20
231.926
  0
VERTEX
  8
0_2
  10
1913.646
  20
233.354
  0
VERTEX
  8
0_2
  10
1914.142
  20
234.74
  0
VERTEX
  8
0_2
  10
1914.771
  20
236.071
  0
VERTEX
  8
0_2
  10
1915.528
  20
237.334
  0
VERTEX
  8
0_2
  10
1916.405
  20
238.516
  0
VERTEX
  8
0_2
  10
1917.393
  20
239.607
  0
VERTEX
  8
0_2
  10
1918.484
  20
240.595
  0
VERTEX
  8
0_2
  10
1919.666
  20
241.472
  0
VERTEX
  8
0_2
  10
1920.929
  20
242.229
  0
VERTEX
  8
0_2
  10
1922.26
  20
242.858
  0
VERTEX
  8
0_2
  10
1923.646
  20
243.354
  0
VERTEX
  8
0_2
  10
1925.074
  20
243.712
  0
VERTEX
  8
0_2
  10
1926.53
  20
243.928
  0
VERTEX
  8
0_2
  10
1928
  20
244
  0
VERTEX
  8
0_2
  10
1929.47
  20
243.928
  0
VERTEX
  8
0_2
  10
1930.926
  20
243.712
  0
VERTEX
  8
0_2
  10
1932.354
  20
243.354
  0
VERTEX
  8
0_2
  10
1933.74
  20
242.858
  0
VERTEX
  8
0_2
  10
1935.071
  20
242.229
  0
VERTEX
  8
0_2
  10
1936.334
  20
241.472
  0
VERTEX
  8
0_2
  10
1937.516
  20
240.595
  0
VERTEX
  8
0_2
  10
1938.607
  20
239.607
  0
VERTEX
  8
0_2
  10
1939.595
  20
238.516
  0
VERTEX
  8
0_2
  10
1940.472
  20
237.334
  0
VERTEX
  8
0_2
  10
1941.229
  20
236.071
  0
VERTEX
  8
0_2
  10
1941.858
  20
234.74
  0
VERTEX
  8
0_2
  10
1942.354
  20
233.354
  0
VERTEX
  8
0_2
  10
1942.712
  20
231.926
  0
VERTEX
  8
0_2
  10
1942.928
  20
230.47
  0
SEQEND
  0
POLYLINE
  8
0_2
  70
1
  66
1
  0
VERTEX
  8
0_2
  10
1943
  20
1771
  0
VERTEX
  8
0_2
  10
1942.928
  20
1769.53
  0
VERTEX
  8
0_2
  10
1942.712
  20
1768.074
  0
VERTEX
  8
0_2
  10
1942.354
  20
1766.646
  0
VERTEX
  8
0_2
  10
1941.858
  20
1765.26
  0
VERTEX
  8
0_2
  10
1941.229
  20
1763.929
  0
VERTEX
  8
0_2
  10
1940.472
  20
1762.666
  0
VERTEX
  8
0_2
  10
1939.595
  20
1761.484
  0
VERTEX
  8
0_2
  10
1938.607
  20
1760.393
  0
VERTEX
  8
0_2
  10
1937.516
  20
1759.405
  0
VERTEX
  8
0_2
  10
1936.334
  20
1758.528
  0
VERTEX
  8
0_2
  10
1935.071
  20
1757.771
  0
VERTEX
  8
0_2
  10
1933.74
  20
1757.142
  0
VERTEX
  8
0_2
  10
1932.354
  20
1756.646
  0
VERTEX
  8
0_2
  10
1930.926
  20
1756.288
  0
VERTEX
  8
0_2
  10
1929.47
  20
1756.072
  0
VERTEX
  8
0_2
  10
1928
  20
1756
  0
VERTEX
  8
0_2
  10
1926.53
  20
1756.072
  0
VERTEX
  8
0_2
  10
1925.074
  20
1756.288
  0
VERTEX
  8
0_2
  10
1923.646
  20
1756.646
  0
VERTEX
  8
0_2
  10
1922.26
  20
1757.142
  0
VERTEX
  8
0_2
  10
1920.929
  20
1757.771
  0
VERTEX
  8
0_2
  10
1919.666
  20
1758.528
  0
VERTEX
  8
0_2
  10
1918.484
  20
1759.405
  0
VERTEX
  8
0_2
  10
1917.393
  20
1760.393
  0
VERTEX
  8
0_2
  10
1916.405
  20
1761.484
  0
VERTEX
  8
0_2
  10
1915.528
  20
1762.666
  0
VERTEX
  8
0_2
  10
1914.771
  20
1763.929
  0
VERTEX
  8
0_2
  10
1914.142
  20
1765.26
  0
VERTEX
  8
0_2
  10
1913.646
  20
1766.646
  0
VERTEX
  8
0_2
  10
1913.288
  20
1768.074
  0
VERTEX
  8
0_2
  10
1913.072
  20
1769.53
  0
VERTEX
  8
0_2
  10
1913
  20
1771
  0
VERTEX
  8
0_2
  10
1913.072
  20
1772.47
  0
VERTEX
  8
0_2
  10
1913.288
  20
1773.926
  0
VERTEX
  8
0_2
  10
1913.646
  20
1775.354
  0
VERTEX
  8
0_2
  10
1914.142
  20
1776.74
  0
VERTEX
  8
0_2
  10
1914.771
  20
1778.071
  0
VERTEX
  8
0_2
  10
1915.528
  20
1779.334
  0
VERTEX
  8
0_2
  10
1916.405
  20
1780.516
  0
VERTEX
  8
0_2
  10
1917.393
  20
1781.607
  0
VERTEX
  8
0_2
  10
1918.484
  20
1782.595
  0
VERTEX
  8
0_2
  10
1919.666
  20
1783.472
  0
VERTEX
  8
0_2
  10
1920.929
  20
1784.229
  0
VERTEX
  8
0_2
  10
1922.26
  20
1784.858
  0
VERTEX
  8
0_2
  10
1923.646
  20
1785.354
  0
VERTEX
  8
0_2
  10
1925.074
  20
1785.712
  0
VERTEX
  8
0_2
  10
1926.53
  20
1785.928
  0
VERTEX
  8
0_2
  10
1928
  20
1786
  0
VERTEX
  8
0_2
  10
1929.47
  20
1785.928
  0
VERTEX
  8
0_2
  10
1930.926
  20
1785.712
  0
VERTEX
  8
0_2
  10
1932.354
  20
1785.354
  0
VERTEX
  8
0_2
  10
1933.74
  20
1784.858
  0
VERTEX
  8
0_2
  10
1935.071
  20
1784.229
  0
VERTEX
  8
0_2
  10
1936.334
  20
1783.472
  0
VERTEX
  8
0_2
  10
1937.516
  20
1782.595
  0
VERTEX
  8
0_2
  10
1938.607
  20
1781.607
  0
VERTEX
  8
0_2
  10
1939.595
  20
1780.516
  0
VERTEX
  8
0_2
  10
1940.472
  20
1779.334
  0
VERTEX
  8
0_2
  10
1941.229
  20
1778.071
  0
VERTEX
  8
0_2
  10
1941.858
  20
1776.74
  0
VERTEX
  8
0_2
  10
1942.354
  20
1775.354
  0
VERTEX
  8
0_2
  10
1942.712
  20
1773.926
  0
VERTEX
  8
0_2
  10
1942.928
  20
1772.47
  0
SEQEND
  0
POLYLINE
  8
0_2
  70
1
  66
1
  0
VERTEX
  8
0_2
  10
475
  20
1738.75
  0
VERTEX
  8
0_2
  10
476.47
  20
1738.678
  0
VERTEX
  8
0_2
  10
477.926
  20
1738.462
  0
VERTEX
  8
0_2
  10
479.354
  20
1738.104
  0
VERTEX
  8
0_2
  10
480.74
  20
1737.608
  0
VERTEX
  8
0_2
  10
482.071
  20
1736.979
  0
VERTEX
  8
0_2
  10
483.334
  20
1736.222
  0
VERTEX
  8
0_2
  10
484.516
  20
1735.345
  0
VERTEX
  8
0_2
  10
485.607
  20
1734.357
  0
VERTEX
  8
0_2
  10
486.595
  20
1733.266
  0
VERTEX
  8
0_2
  10
487.472
  20
1732.084
  0
VERTEX
  8
0_2
  10
488.229
  20
1730.821
  0
VERTEX
  8
0_2
  10
488.858
  20
1729.49
  0
VERTEX
  8
0_2
  10
489.354
  20
1728.104
  0
VERTEX
  8
0_2
  10
489.712
  20
1726.676
  0
VERTEX
  8
0_2
  10
489.928
  20
1725.22
  0
VERTEX
  8
0_2
  10
490
  20
1723.75
  0
VERTEX
  8
0_2
  10
489.928
  20
1722.28
  0
VERTEX
  8
0_2
  10
489.712
  20
1720.824
  0
VERTEX
  8
0_2
  10
489.354
  20
1719.396
  0
VERTEX
  8
0_2
  10
488.858
  20
1718.01
  0
VERTEX
  8
0_2
  10
488.229
  20
1716.679
  0
VERTEX
  8
0_2
  10
487.472
  20
1715.416
  0
VERTEX
  8
0_2
  10
486.595
  20
1714.234
  0
VERTEX
  8
0_2
  10
485.607
  20
1713.143
  0
VERTEX
  8
0_2
  10
484.516
  20
1712.155
  0
VERTEX
  8
0_2
  10
483.334
  20
1711.278
  0
VERTEX
  8
0_2
  10
482.071
  20
1710.521
  0
VERTEX
  8
0_2
  10
480.74
  20
1709.892
  0
VERTEX
  8
0_2
  10
479.354
  20
1709.396
  0
VERTEX
  8
0_2
  10
477.926
  20
1709.038
  0
VERTEX
  8
0_2
  10
476.47
  20
1708.822
  0
VERTEX
  8
0_2
  10
475
  20
1708.75
  0
VERTEX
  8
0_2
  10
473.53
  20
1708.822
  0
VERTEX
  8
0_2
  10
472.074
  20
1709.038
  0
VERTEX
  8
0_2
  10
470.646
  20
1709.396
  0
VERTEX
  8
0_2
  10
469.26
  20
1709.892
  0
VERTEX
  8
0_2
  10
467.929
  20
1710.521
  0
VERTEX
  8
0_2
  10
466.666
  20
1711.278
  0
VERTEX
  8
0_2
  10
465.484
  20
1712.155
  0
VERTEX
  8
0_2
  10
464.393
  20
1713.143
  0
VERTEX
  8
0_2
  10
463.405
  20
1714.234
  0
VERTEX
  8
0_2
  10
462.528
  20
1715.416
  0
VERTEX
  8
0_2
  10
461.771
  20
1716.679
  0
VERTEX
  8
0_2
  10
461.142
  20
1718.01
  0
VERTEX
  8
0_2
  10
460.646
  20
1719.396
  0
VERTEX
  8
0_2
  10
460.288
  20
1720.824
  0
VERTEX
  8
0_2
  10
460.072
  20
1722.28
  0
VERTEX
  8
0_2
  10
460
  20
1723.75
  0
VERTEX
  8
0_2
  10
460.072
  20
1725.22
  0
VERTEX
  8
0_2
  10
460.288
  20
1726.676
  0
VERTEX
  8
0_2
  10
460.646
  20
1728.104
  0
VERTEX
  8
0_2
  10
461.142
  20
1729.49
  0
VERTEX
  8
0_2
  10
461.771
  20
1730.821
  0
VERTEX
  8
0_2
  10
462.528
  20
1732.084
  0
VERTEX
  8
0_2
  10
463.405
  20
1733.266
  0
VERTEX
  8
0_2
  10
464.393
  20
1734.357
  0
VERTEX
  8
0_2
  10
465.484
  20
1735.345
  0
VERTEX
  8
0_2
  10
466.666
  20
1736.222
  0
VERTEX
  8
0_2
  10
467.929
  20
1736.979
  0
VERTEX
  8
0_2
  10
469.26
  20
1737.608
  0
VERTEX
  8
0_2
  10
470.646
  20
1738.104
  0
VERTEX
  8
0_2
  10
472.074
  20
1738.462
  0
VERTEX
  8
0_2
  10
473.53
  20
1738.678
  0
SEQEND
  0
POLYLINE
  8
0_2
  70
1
  66
1
  0
VERTEX
  8
0_2
  10
149.25
  20
1209.5
  0
VERTEX
  8
0_2
  10
147.78
  20
1209.572
  0
VERTEX
  8
0_2
  10
146.324
  20
1209.788
  0
VERTEX
  8
0_2
  10
144.896
  20
1210.146
  0
VERTEX
  8
0_2
  10
143.51
  20
1210.642
  0
VERTEX
  8
0_2
  10
142.179
  20
1211.271
  0
VERTEX
  8
0_2
  10
140.916
  20
1212.028
  0
VERTEX
  8
0_2
  10
139.734
  20
1212.905
  0
VERTEX
  8
0_2
  10
138.643
  20
1213.893
  0
VERTEX
  8
0_2
  10
137.655
  20
1214.984
  0
VERTEX
  8
0_2
  10
136.778
  20
1216.166
  0
VERTEX
  8
0_2
  10
136.021
  20
1217.429
  0
VERTEX
  8
0_2
  10
135.392
  20
1218.76
  0
VERTEX
  8
0_2
  10
134.896
  20
1220.146
  0
VERTEX
  8
0_2
  10
134.538
  20
1221.574
  0
VERTEX
  8
0_2
  10
134.322
  20
1223.03
  0
VERTEX
  8
0_2
  10
134.25
  20
1224.5
  0
VERTEX
  8
0_2
  10
134.322
  20
1225.97
  0
VERTEX
  8
0_2
  10
134.538
  20
1227.426
  0
VERTEX
  8
0_2
  10
134.896
  20
1228.854
  0
VERTEX
  8
0_2
  10
135.392
  20
1230.24
  0
VERTEX
  8
0_2
  10
136.021
  20
1231.571
  0
VERTEX
  8
0_2
  10
136.778
  20
1232.834
  0
VERTEX
  8
0_2
  10
137.655
  20
1234.016
  0
VERTEX
  8
0_2
  10
138.643
  20
1235.107
  0
VERTEX
  8
0_2
  10
139.734
  20
1236.095
  0
VERTEX
  8
0_2
  10
140.916
  20
1236.972
  0
VERTEX
  8
0_2
  10
142.179
  20
1237.729
  0
VERTEX
  8
0_2
  10
143.51
  20
1238.358
  0
VERTEX
  8
0_2
  10
144.896
  20
1238.854
  0
VERTEX
  8
0_2
  10
146.324
  20
1239.212
  0
VERTEX
  8
0_2
  10
147.78
  20
1239.428
  0
VERTEX
  8
0_2
  10
149.25
  20
1239.5
  0
VERTEX
  8
0_2
  10
150.72
  20
1239.428
  0
VERTEX
  8
0_2
  10
152.176
  20
1239.212
  0
VERTEX
  8
0_2
  10
153.604
  20
1238.854
  0
VERTEX
  8
0_2
  10
154.99
  20
1238.358
  0
VERTEX
  8
0_2
  10
156.321
  20
1237.729
  0
VERTEX
  8
0_2
  10
157.584
  20
1236.972
  0
VERTEX
  8
0_2
  10
158.766
  20
1236.095
  0
VERTEX
  8
0_2
  10
159.857
  20
1235.107
  0
VERTEX
  8
0_2
  10
160.845
  20
1234.016
  0
VERTEX
  8
0_2
  10
161.722
  20
1232.834
  0
VERTEX
  8
0_2
  10
162.479
  20
1231.571
  0
VERTEX
  8
0_2
  10
163.108
  20
1230.24
  0
VERTEX
  8
0_2
  10
163.604
  20
1228.854
  0
VERTEX
  8
0_2
  10
163.962
  20
1227.426
  0
VERTEX
  8
0_2
  10
164.178
  20
1225.97
  0
VERTEX
  8
0_2
  10
164.25
  20
1224.5
  0
VERTEX
  8
0_2
  10
164.178
  20
1223.03
  0
VERTEX
  8
0_2
  10
163.962
  20
1221.574
  0
VERTEX
  8
0_2
  10
163.604
  20
1220.146
  0
VERTEX
  8
0_2
  10
163.108
  20
1218.76
  0
VERTEX
  8
0_2
  10
162.479
  20
1217.429
  0
VERTEX
  8
0_2
  10
161.722
  20
1216.166
  0
VERTEX
  8
0_2
  10
160.845
  20
1214.984
  0
VERTEX
  8
0_2
  10
159.857
  20
1213.893
  0
VERTEX
  8
0_2
  10
158.766
  20
1212.905
  0
VERTEX
  8
0_2
  10
157.584
  20
1212.028
  0
VERTEX
  8
0_2
  10
156.321
  20
1211.271
  0
VERTEX
  8
0_2
  10
154.99
  20
1210.642
  0
VERTEX
  8
0_2
  10
153.604
  20
1210.146
  0
VERTEX
  8
0_2
  10
152.176
  20
1209.788
  0
VERTEX
  8
0_2
  10
150.72
  20
1209.572
  0
SEQEND
  0
POLYLINE
  8
0_2
  70
1
  66
1
  0
VERTEX
  8
0_2
  10
1193
  20
229
  0
VERTEX
  8
0_2
  10
1192.928
  20
227.53
  0
VERTEX
  8
0_2
  10
1192.712
  20
226.074
  0
VERTEX
  8
0_2
  10
1192.354
  20
224.646
  0
VERTEX
  8
0_2
  10
1191.858
  20
223.26
  0
VERTEX
  8
0_2
  10
1191.229
  20
221.929
  0
VERTEX
  8
0_2
  10
1190.472
  20
220.666
  0
VERTEX
  8
0_2
  10
1189.595
  20
219.484
  0
VERTEX
  8
0_2
  10
1188.607
  20
218.393
  0
VERTEX
  8
0_2
  10
1187.516
  20
217.405
  0
VERTEX
  8
0_2
  10
1186.334
  20
216.528
  0
VERTEX
  8
0_2
  10
1185.071
  20
215.771
  0
VERTEX
  8
0_2
  10
1183.74
  20
215.142
  0
VERTEX
  8
0_2
  10
1182.354
  20
214.646
  0
VERTEX
  8
0_2
  10
1180.926
  20
214.288
  0
VERTEX
  8
0_2
  10
1179.47
  20
214.072
  0
VERTEX
  8
0_2
  10
1178
  20
214
  0
VERTEX
  8
0_2
  10
1176.53
  20
214.072
  0
VERTEX
  8
0_2
  10
1175.074
  20
214.288
  0
VERTEX
  8
0_2
  10
1173.646
  20
214.646
  0
VERTEX
  8
0_2
  10
1172.26
  20
215.142
  0
VERTEX
  8
0_2
  10
1170.929
  20
215.771
  0
VERTEX
  8
0_2
  10
1169.666
  20
216.528
  0
VERTEX
  8
0_2
  10
1168.484
  20
217.405
  0
VERTEX
  8
0_2
  10
1167.393
  20
218.393
  0
VERTEX
  8
0_2
  10
1166.405
  20
219.484
  0
VERTEX
  8
0_2
  10
1165.528
  20
220.666
  0
VERTEX
  8
0_2
  10
1164.771
  20
221.929
  0
VERTEX
  8
0_2
  10
1164.142
  20
223.26
  0
VERTEX
  8
0_2
  10
1163.646
  20
224.646
  0
VERTEX
  8
0_2
  10
1163.288
  20
226.074
  0
VERTEX
  8
0_2
  10
1163.072
  20
227.53
  0
VERTEX
  8
0_2
  10
1163
  20
229
  0
VERTEX
  8
0_2
  10
1163.072
  20
230.47
  0
VERTEX
  8
0_2
  10
1163.288
  20
231.926
  0
VERTEX
  8
0_2
  10
1163.646
  20
233.354
  0
VERTEX
  8
0_2
  10
1164.142
  20
234.74
  0
VERTEX
  8
0_2
  10
1164.771
  20
236.071
  0
VERTEX
  8
0_2
  10
1165.528
  20
237.334
  0
VERTEX
  8
0_2
  10
1166.405
  20
238.516
  0
VERTEX
  8
0_2
  10
1167.393
  20
239.607
  0
VERTEX
  8
0_2
  10
1168.484
  20
240.595
  0
VERTEX
  8
0_2
  10
1169.666
  20
241.472
  0
VERTEX
  8
0_2
  10
1170.929
  20
242.229
  0
VERTEX
  8
0_2
  10
1172.26
  20
242.858
  0
VERTEX
  8
0_2
  10
1173.646
  20
243.354
  0
VERTEX
  8
0_2
  10
1175.074
  20
243.712
  0
VERTEX
  8
0_2
  10
1176.53
  20
243.928
  0
VERTEX
  8
0_2
  10
1178
  20
244
  0
VERTEX
  8
0_2
  10
1179.47
  20
243.928
  0
VERTEX
  8
0_2
  10
1180.926
  20
243.712
  0
VERTEX
  8
0_2
  10
1182.354
  20
243.354
  0
VERTEX
  8
0_2
  10
1183.74
  20
242.858
  0
VERTEX
  8
0_2
  10
1185.071
  20
242.229
  0
VERTEX
  8
0_2
  10
1186.334
  20
241.472
  0
VERTEX
  8
0_2
  10
1187.516
  20
240.595
  0
VERTEX
  8
0_2
  10
1188.607
  20
239.607
  0
VERTEX
  8
0_2
  10
1189.595
  20
238.516
  0
VERTEX
  8
0_2
  10
1190.472
  20
237.334
  0
VERTEX
  8
0_2
  10
1191.229
  20
236.071
  0
VERTEX
  8
0_2
  10
1191.858
  20
234.74
  0
VERTEX
  8
0_2
  10
1192.354
  20
233.354
  0
VERTEX
  8
0_2
  10
1192.712
  20
231.926
  0
VERTEX
  8
0_2
  10
1192.928
  20
230.47
  0
SEQEND
  0
POLYLINE
  8
0_2
  70
1
  66
1
  0
VERTEX
  8
0_2
  10
149.25
  20
790.5
  0
VERTEX
  8
0_2
  10
147.78
  20
790.428
  0
VERTEX
  8
0_2
  10
146.324
  20
790.212
  0
VERTEX
  8
0_2
  10
144.896
  20
789.854
  0
VERTEX
  8
0_2
  10
143.51
  20
789.358
  0
VERTEX
  8
0_2
  10
142.179
  20
788.729
  0
VERTEX
  8
0_2
  10
140.916
  20
787.972
  0
VERTEX
  8
0_2
  10
139.734
  20
787.095
  0
VERTEX
  8
0_2
  10
138.643
  20
786.107
  0
VERTEX
  8
0_2
  10
137.655
  20
785.016
  0
VERTEX
  8
0_2
  10
136.778
  20
783.834
  0
VERTEX
  8
0_2
  10
136.021
  20
782.571
  0
VERTEX
  8
0_2
  10
135.392
  20
781.24
  0
VERTEX
  8
0_2
  10
134.896
  20
779.854
  0
VERTEX
  8
0_2
  10
134.538
  20
778.426
  0
VERTEX
  8
0_2
  10
134.322
  20
776.97
  0
VERTEX
  8
0_2
  10
134.25
  20
775.5
  0
VERTEX
  8
0_2
  10
134.322
  20
774.03
  0
VERTEX
  8
0_2
  10
134.538
  20
772.574
  0
VERTEX
  8
0_2
  10
134.896
  20
771.146
  0
VERTEX
  8
0_2
  10
135.392
  20
769.76
  0
VERTEX
  8
0_2
  10
136.021
  20
768.429
  0
VERTEX
  8
0_2
  10
136.778
  20
767.166
  0
VERTEX
  8
0_2
  10
137.655
  20
765.984
  0
VERTEX
  8
0_2
  10
138.643
  20
764.893
  0
VERTEX
  8
0_2
  10
139.734
  20
763.905
  0
VERTEX
  8
0_2
  10
140.916
  20
763.028
  0
VERTEX
  8
0_2
  10
142.179
  20
762.271
  0
VERTEX
  8
0_2
  10
143.51
  20
761.642
  0
VERTEX
  8
0_2
  10
144.896
  20
761.146
  0
VERTEX
  8
0_2
  10
146.324
  20
760.788
  0
VERTEX
  8
0_2
  10
147.78
  20
760.572
  0
VERTEX
  8
0_2
  10
149.25
  20
760.5
  0
VERTEX
  8
0_2
  10
150.72
  20
760.572
  0
VERTEX
  8
0_2
  10
152.176
  20
760.788
  0
VERTEX
  8
0_2
  10
153.604
  20
761.146
  0
VERTEX
  8
0_2
  10
154.99
  20
761.642
  0
VERTEX
  8
0_2
  10
156.321
  20
762.271
  0
VERTEX
  8
0_2
  10
157.584
  20
763.028
  0
VERTEX
  8
0_2
  10
158.766
  20
763.905
  0
VERTEX
  8
0_2
  10
159.857
  20
764.893
  0
VERTEX
  8
0_2
  10
160.845
  20
765.984
  0
VERTEX
  8
0_2
  10
161.722
  20
767.166
  0
VERTEX
  8
0_2
  10
162.479
  20
768.429
  0
VERTEX
  8
0_2
  10
163.108
  20
769.76
  0
VERTEX
  8
0_2
  10
163.604
  20
771.146
  0
VERTEX
  8
0_2
  10
163.962
  20
772.574
  0
VERTEX
  8
0_2
  10
164.178
  20
774.03
  0
VERTEX
  8
0_2
  10
164.25
  20
775.5
  0
VERTEX
  8
0_2
  10
164.178
  20
776.97
  0
VERTEX
  8
0_2
  10
163.962
  20
778.426
  0
VERTEX
  8
0_2
  10
163.604
  20
779.854
  0
VERTEX
  8
0_2
  10
163.108
  20
781.24
  0
VERTEX
  8
0_2
  10
162.479
  20
782.571
  0
VERTEX
  8
0_2
  10
161.722
  20
783.834
  0
VERTEX
  8
0_2
  10
160.845
  20
785.016
  0
VERTEX
  8
0_2
  10
159.857
  20
786.107
  0
VERTEX
  8
0_2
  10
158.766
  20
787.095
  0
VERTEX
  8
0_2
  10
157.584
  20
787.972
  0
VERTEX
  8
0_2
  10
156.321
  20
788.729
  0
VERTEX
  8
0_2
  10
154.99
  20
789.358
  0
VERTEX
  8
0_2
  10
153.604
  20
789.854
  0
VERTEX
  8
0_2
  10
152.176
  20
790.212
  0
VERTEX
  8
0_2
  10
150.72
  20
790.428
  0
SEQEND
  0
POLYLINE
  8
0_2
  70
1
  66
1
  0
VERTEX
  8
0_2
  10
1285
  20
1720.75
  0
VERTEX
  8
0_2
  10
1286.47
  20
1720.678
  0
VERTEX
  8
0_2
  10
1287.926
  20
1720.462
  0
VERTEX
  8
0_2
  10
1289.354
  20
1720.104
  0
VERTEX
  8
0_2
  10
1290.74
  20
1719.608
  0
VERTEX
  8
0_2
  10
1292.071
  20
1718.979
  0
VERTEX
  8
0_2
  10
1293.334
  20
1718.222
  0
VERTEX
  8
0_2
  10
1294.516
  20
1717.345
  0
VERTEX
  8
0_2
  10
1295.607
  20
1716.357
  0
VERTEX
  8
0_2
  10
1296.595
  20
1715.266
  0
VERTEX
  8
0_2
  10
1297.472
  20
1714.084
  0
VERTEX
  8
0_2
  10
1298.229
  20
1712.821
  0
VERTEX
  8
0_2
  10
1298.858
  20
1711.49
  0
VERTEX
  8
0_2
  10
1299.354
  20
1710.104
  0
VERTEX
  8
0_2
  10
1299.712
  20
1708.676
  0
VERTEX
  8
0_2
  10
1299.928
  20
1707.22
  0
VERTEX
  8
0_2
  10
1300
  20
1705.75
  0
VERTEX
  8
0_2
  10
1299.928
  20
1704.28
  0
VERTEX
  8
0_2
  10
1299.712
  20
1702.824
  0
VERTEX
  8
0_2
  10
1299.354
  20
1701.396
  0
VERTEX
  8
0_2
  10
1298.858
  20
1700.01
  0
VERTEX
  8
0_2
  10
1298.229
  20
1698.679
  0
VERTEX
  8
0_2
  10
1297.472
  20
1697.416
  0
VERTEX
  8
0_2
  10
1296.595
  20
1696.234
  0
VERTEX
  8
0_2
  10
1295.607
  20
1695.143
  0
VERTEX
  8
0_2
  10
1294.516
  20
1694.155
  0
VERTEX
  8
0_2
  10
1293.334
  20
1693.278
  0
VERTEX
  8
0_2
  10
1292.071
  20
1692.521
  0
VERTEX
  8
0_2
  10
1290.74
  20
1691.892
  0
VERTEX
  8
0_2
  10
1289.354
  20
1691.396
  0
VERTEX
  8
0_2
  10
1287.926
  20
1691.038
  0
VERTEX
  8
0_2
  10
1286.47
  20
1690.822
  0
VERTEX
  8
0_2
  10
1285
  20
1690.75
  0
VERTEX
  8
0_2
  10
1283.53
  20
1690.822
  0
VERTEX
  8
0_2
  10
1282.074
  20
1691.038
  0
VERTEX
  8
0_2
  10
1280.646
  20
1691.396
  0
VERTEX
  8
0_2
  10
1279.26
  20
1691.892
  0
VERTEX
  8
0_2
  10
1277.929
  20
1692.521
  0
VERTEX
  8
0_2
  10
1276.666
  20
1693.278
  0
VERTEX
  8
0_2
  10
1275.484
  20
1694.155
  0
VERTEX
  8
0_2
  10
1274.393
  20
1695.143
  0
VERTEX
  8
0_2
  10
1273.405
  20
1696.234
  0
VERTEX
  8
0_2
  10
1272.528
  20
1697.416
  0
VERTEX
  8
0_2
  10
1271.771
  20
1698.679
  0
VERTEX
  8
0_2
  10
1271.142
  20
1700.01
  0
VERTEX
  8
0_2
  10
1270.646
  20
1701.396
  0
VERTEX
  8
0_2
  10
1270.288
  20
1702.824
  0
VERTEX
  8
0_2
  10
1270.072
  20
1704.28
  0
VERTEX
  8
0_2
  10
1270
  20
1705.75
  0
VERTEX
  8
0_2
  10
1270.072
  20
1707.22
  0
VERTEX
  8
0_2
  10
1270.288
  20
1708.676
  0
VERTEX
  8
0_2
  10
1270.646
  20
1710.104
  0
VERTEX
  8
0_2
  10
1271.142
  20
1711.49
  0
VERTEX
  8
0_2
  10
1271.771
  20
1712.821
  0
VERTEX
  8
0_2
  10
1272.528
  20
1714.084
  0
VERTEX
  8
0_2
  10
1273.405
  20
1715.266
  0
VERTEX
  8
0_2
  10
1274.393
  20
1716.357
  0
VERTEX
  8
0_2
  10
1275.484
  20
1717.345
  0
VERTEX
  8
0_2
  10
1276.666
  20
1718.222
  0
VERTEX
  8
0_2
  10
1277.929
  20
1718.979
  0
VERTEX
  8
0_2
  10
1279.26
  20
1719.608
  0
VERTEX
  8
0_2
  10
1280.646
  20
1720.104
  0
VERTEX
  8
0_2
  10
1282.074
  20
1720.462
  0
VERTEX
  8
0_2
  10
1283.53
  20
1720.678
  0
SEQEND
  0
POLYLINE
  8
0_2
  70
1
  66
1
  0
VERTEX
  8
0_2
  10
2850.75
  20
790.5
  0
VERTEX
  8
0_2
  10
2852.22
  20
790.428
  0
VERTEX
  8
0_2
  10
2853.676
  20
790.212
  0
VERTEX
  8
0_2
  10
2855.104
  20
789.854
  0
VERTEX
  8
0_2
  10
2856.49
  20
789.358
  0
VERTEX
  8
0_2
  10
2857.821
  20
788.729
  0
VERTEX
  8
0_2
  10
2859.084
  20
787.972
  0
VERTEX
  8
0_2
  10
2860.266
  20
787.095
  0
VERTEX
  8
0_2
  10
2861.357
  20
786.107
  0
VERTEX
  8
0_2
  10
2862.345
  20
785.016
  0
VERTEX
  8
0_2
  10
2863.222
  20
783.834
  0
VERTEX
  8
0_2
  10
2863.979
  20
782.571
  0
VERTEX
  8
0_2
  10
2864.608
  20
781.24
  0
VERTEX
  8
0_2
  10
2865.104
  20
779.854
  0
VERTEX
  8
0_2
  10
2865.462
  20
778.426
  0
VERTEX
  8
0_2
  10
2865.678
  20
776.97
  0
VERTEX
  8
0_2
  10
2865.75
  20
775.5
  0
VERTEX
  8
0_2
  10
2865.678
  20
774.03
  0
VERTEX
  8
0_2
  10
2865.462
  20
772.574
  0
VERTEX
  8
0_2
  10
2865.104
  20
771.146
  0
VERTEX
  8
0_2
  10
2864.608
  20
769.76
  0
VERTEX
  8
0_2
  10
2863.979
  20
768.429
  0
VERTEX
  8
0_2
  10
2863.222
  20
767.166
  0
VERTEX
  8
0_2
  10
2862.345
  20
765.984
  0
VERTEX
  8
0_2
  10
2861.357
  20
764.893
  0
VERTEX
  8
0_2
  10
2860.266
  20
763.905
  0
VERTEX
  8
0_2
  10
2859.084
  20
763.028
  0
VERTEX
  8
0_2
  10
2857.821
  20
762.271
  0
VERTEX
  8
0_2
  10
2856.49
  20
761.642
  0
VERTEX
  8
0_2
  10
2855.104
  20
761.146
  0
VERTEX
  8
0_2
  10
2853.676
  20
760.788
  0
VERTEX
  8
0_2
  10
2852.22
  20
760.572
  0
VERTEX
  8
0_2
  10
2850.75
  20
760.5
  0
VERTEX
  8
0_2
  10
2849.28
  20
760.572
  0
VERTEX
  8
0_2
  10
2847.824
  20
760.788
  0
VERTEX
  8
0_2
  10
2846.396
  20
761.146
  0
VERTEX
  8
0_2
  10
2845.01
  20
761.642
  0
VERTEX
  8
0_2
  10
2843.679
  20
762.271
  0
VERTEX
  8
0_2
  10
2842.416
  20
763.028
  0
VERTEX
  8
0_2
  10
2841.234
  20
763.905
  0
VERTEX
  8
0_2
  10
2840.143
  20
764.893
  0
VERTEX
  8
0_2
  10
2839.155
  20
765.984
  0
VERTEX
  8
0_2
  10
2838.278
  20
767.166
  0
VERTEX
  8
0_2
  10
2837.521
  20
768.429
  0
VERTEX
  8
0_2
  10
2836.892
  20
769.76
  0
VERTEX
  8
0_2
  10
2836.396
  20
771.146
  0
VERTEX
  8
0_2
  10
2836.038
  20
772.574
  0
VERTEX
  8
0_2
  10
2835.822
  20
774.03
  0
VERTEX
  8
0_2
  10
2835.75
  20
775.5
  0
VERTEX
  8
0_2
  10
2835.822
  20
776.97
  0
VERTEX
  8
0_2
  10
2836.038
  20
778.426
  0
VERTEX
  8
0_2
  10
2836.396
  20
779.854
  0
VERTEX
  8
0_2
  10
2836.892
  20
781.24
  0
VERTEX
  8
0_2
  10
2837.521
  20
782.571
  0
VERTEX
  8
0_2
  10
2838.278
  20
783.834
  0
VERTEX
  8
0_2
  10
2839.155
  20
785.016
  0
VERTEX
  8
0_2
  10
2840.143
  20
786.107
  0
VERTEX
  8
0_2
  10
2841.234
  20
787.095
  0
VERTEX
  8
0_2
  10
2842.416
  20
787.972
  0
VERTEX
  8
0_2
  10
2843.679
  20
788.729
  0
VERTEX
  8
0_2
  10
2845.01
  20
789.358
  0
VERTEX
  8
0_2
  10
2846.396
  20
789.854
  0
VERTEX
  8
0_2
  10
2847.824
  20
790.212
  0
VERTEX
  8
0_2
  10
2849.28
  20
790.428
  0
SEQEND
  0
POLYLINE
  8
0_2
  70
1
  66
1
  0
VERTEX
  8
0_2
  10
2850.75
  20
1209.5
  0
VERTEX
  8
0_2
  10
2852.22
  20
1209.572
  0
VERTEX
  8
0_2
  10
2853.676
  20
1209.788
  0
VERTEX
  8
0_2
  10
2855.104
  20
1210.146
  0
VERTEX
  8
0_2
  10
2856.49
  20
1210.642
  0
VERTEX
  8
0_2
  10
2857.821
  20
1211.271
  0
VERTEX
  8
0_2
  10
2859.084
  20
1212.028
  0
VERTEX
  8
0_2
  10
2860.266
  20
1212.905
  0
VERTEX
  8
0_2
  10
2861.357
  20
1213.893
  0
VERTEX
  8
0_2
  10
2862.345
  20
1214.984
  0
VERTEX
  8
0_2
  10
2863.222
  20
1216.166
  0
VERTEX
  8
0_2
  10
2863.979
  20
1217.429
  0
VERTEX
  8
0_2
  10
2864.608
  20
1218.76
  0
VERTEX
  8
0_2
  10
2865.104
  20
1220.146
  0
VERTEX
  8
0_2
  10
2865.462
  20
1221.574
  0
VERTEX
  8
0_2
  10
2865.678
  20
1223.03
  0
VERTEX
  8
0_2
  10
2865.75
  20
1224.5
  0
VERTEX
  8
0_2
  10
2865.678
  20
1225.97
  0
VERTEX
  8
0_2
  10
2865.462
  20
1227.426
  0
VERTEX
  8
0_2
  10
2865.104
  20
1228.854
  0
VERTEX
  8
0_2
  10
2864.608
  20
1230.24
  0
VERTEX
  8
0_2
  10
2863.979
  20
1231.571
  0
VERTEX
  8
0_2
  10
2863.222
  20
1232.834
  0
VERTEX
  8
0_2
  10
2862.345
  20
1234.016
  0
VERTEX
  8
0_2
  10
2861.357
  20
1235.107
  0
VERTEX
  8
0_2
  10
2860.266
  20
1236.095
  0
VERTEX
  8
0_2
  10
2859.084
  20
1236.972
  0
VERTEX
  8
0_2
  10
2857.821
  20
1237.729
  0
VERTEX
  8
0_2
  10
2856.49
  20
1238.358
  0
VERTEX
  8
0_2
  10
2855.104
  20
1238.854
  0
VERTEX
  8
0_2
  10
2853.676
  20
1239.212
  0
VERTEX
  8
0_2
  10
2852.22
  20
1239.428
  0
VERTEX
  8
0_2
  10
2850.75
  20
1239.5
  0
VERTEX
  8
0_2
  10
2849.28
  20
1239.428
  0
VERTEX
  8
0_2
  10
2847.824
  20
1239.212
  0
VERTEX
  8
0_2
  10
2846.396
  20
1238.854
  0
VERTEX
  8
0_2
  10
2845.01
  20
1238.358
  0
VERTEX
  8
0_2
  10
2843.679
  20
1237.729
  0
VERTEX
  8
0_2
  10
2842.416
  20
1236.972
  0
VERTEX
  8
0_2
  10
2841.234
  20
1236.095
  0
VERTEX
  8
0_2
  10
2840.143
  20
1235.107
  0
VERTEX
  8
0_2
  10
2839.155
  20
1234.016
  0
VERTEX
  8
0_2
  10
2838.278
  20
1232.834
  0
VERTEX
  8
0_2
  10
2837.521
  20
1231.571
  0
VERTEX
  8
0_2
  10
2836.892
  20
1230.24
  0
VERTEX
  8
0_2
  10
2836.396
  20
1228.854
  0
VERTEX
  8
0_2
  10
2836.038
  20
1227.426
  0
VERTEX
  8
0_2
  10
2835.822
  20
1225.97
  0
VERTEX
  8
0_2
  10
2835.75
  20
1224.5
  0
VERTEX
  8
0_2
  10
2835.822
  20
1223.03
  0
VERTEX
  8
0_2
  10
2836.038
  20
1221.574
  0
VERTEX
  8
0_2
  10
2836.396
  20
1220.146
  0
VERTEX
  8
0_2
  10
2836.892
  20
1218.76
  0
VERTEX
  8
0_2
  10
2837.521
  20
1217.429
  0
VERTEX
  8
0_2
  10
2838.278
  20
1216.166
  0
VERTEX
  8
0_2
  10
2839.155
  20
1214.984
  0
VERTEX
  8
0_2
  10
2840.143
  20
1213.893
  0
VERTEX
  8
0_2
  10
2841.234
  20
1212.905
  0
VERTEX
  8
0_2
  10
2842.416
  20
1212.028
  0
VERTEX
  8
0_2
  10
2843.679
  20
1211.271
  0
VERTEX
  8
0_2
  10
2845.01
  20
1210.642
  0
VERTEX
  8
0_2
  10
2846.396
  20
1210.146
  0
VERTEX
  8
0_2
  10
2847.824
  20
1209.788
  0
VERTEX
  8
0_2
  10
2849.28
  20
1209.572
  0
SEQEND
  0
POLYLINE
  8
0_2
  70
1
  66
1
  0
VERTEX
  8
0_2
  10
443
  20
200.5
  0
VERTEX
  8
0_2
  10
442.928
  20
199.03
  0
VERTEX
  8
0_2
  10
442.712
  20
197.574
  0
VERTEX
  8
0_2
  10
442.354
  20
196.146
  0
VERTEX
  8
0_2
  10
441.858
  20
194.76
  0
VERTEX
  8
0_2
  10
441.229
  20
193.429
  0
VERTEX
  8
0_2
  10
440.472
  20
192.166
  0
VERTEX
  8
0_2
  10
439.595
  20
190.984
  0
VERTEX
  8
0_2
  10
438.607
  20
189.893
  0
VERTEX
  8
0_2
  10
437.516
  20
188.905
  0
VERTEX
  8
0_2
  10
436.334
  20
188.028
  0
VERTEX
  8
0_2
  10
435.071
  20
187.271
  0
VERTEX
  8
0_2
  10
433.74
  20
186.642
  0
VERTEX
  8
0_2
  10
432.354
  20
186.146
  0
VERTEX
  8
0_2
  10
430.926
  20
185.788
  0
VERTEX
  8
0_2
  10
429.47
  20
185.572
  0
VERTEX
  8
0_2
  10
428
  20
185.5
  0
VERTEX
  8
0_2
  10
426.53
  20
185.572
  0
VERTEX
  8
0_2
  10
425.074
  20
185.788
  0
VERTEX
  8
0_2
  10
423.646
  20
186.146
  0
VERTEX
  8
0_2
  10
422.26
  20
186.642
  0
VERTEX
  8
0_2
  10
420.929
  20
187.271
  0
VERTEX
  8
0_2
  10
419.666
  20
188.028
  0
VERTEX
  8
0_2
  10
418.484
  20
188.905
  0
VERTEX
  8
0_2
  10
417.393
  20
189.893
  0
VERTEX
  8
0_2
  10
416.405
  20
190.984
  0
VERTEX
  8
0_2
  10
415.528
  20
192.166
  0
VERTEX
  8
0_2
  10
414.771
  20
193.429
  0
VERTEX
  8
0_2
  10
414.142
  20
194.76
  0
VERTEX
  8
0_2
  10
413.646
  20
196.146
  0
VERTEX
  8
0_2
  10
413.288
  20
197.574
  0
VERTEX
  8
0_2
  10
413.072
  20
199.03
  0
VERTEX
  8
0_2
  10
413
  20
200.5
  0
VERTEX
  8
0_2
  10
413.072
  20
201.97
  0
VERTEX
  8
0_2
  10
413.288
  20
203.426
  0
VERTEX
  8
0_2
  10
413.646
  20
204.854
  0
VERTEX
  8
0_2
  10
414.142
  20
206.24
  0
VERTEX
  8
0_2
  10
414.771
  20
207.571
  0
VERTEX
  8
0_2
  10
415.528
  20
208.834
  0
VERTEX
  8
0_2
  10
416.405
  20
210.016
  0
VERTEX
  8
0_2
  10
417.393
  20
211.107
  0
VERTEX
  8
0_2
  10
418.484
  20
212.095
  0
VERTEX
  8
0_2
  10
419.666
  20
212.972
  0
VERTEX
  8
0_2
  10
420.929
  20
213.729
  0
VERTEX
  8
0_2
  10
422.26
  20
214.358
  0
VERTEX
  8
0_2
  10
423.646
  20
214.854
  0
VERTEX
  8
0_2
  10
425.074
  20
215.212
  0
VERTEX
  8
0_2
  10
426.53
  20
215.428
  0
VERTEX
  8
0_2
  10
428
  20
215.5
  0
VERTEX
  8
0_2
  10
429.47
  20
215.428
  0
VERTEX
  8
0_2
  10
430.926
  20
215.212
  0
VERTEX
  8
0_2
  10
432.354
  20
214.854
  0
VERTEX
  8
0_2
  10
433.74
  20
214.358
  0
VERTEX
  8
0_2
  10
435.071
  20
213.729
  0
VERTEX
  8
0_2
  10
436.334
  20
212.972
  0
VERTEX
  8
0_2
  10
437.516
  20
212.095
  0
VERTEX
  8
0_2
  10
438.607
  20
211.107
  0
VERTEX
  8
0_2
  10
439.595
  20
210.016
  0
VERTEX
  8
0_2
  10
440.472
  20
208.834
  0
VERTEX
  8
0_2
  10
441.229
  20
207.571
  0
VERTEX
  8
0_2
  10
441.858
  20
206.24
  0
VERTEX
  8
0_2
  10
442.354
  20
204.854
  0
VERTEX
  8
0_2
  10
442.712
  20
203.426
  0
VERTEX
  8
0_2
  10
442.928
  20
201.97
  0
SEQEND
  0
POLYLINE
  8
MMIC_Die
  70
1
  66
1
  0
VERTEX
  8
MMIC_Die
  10
0
  20
2000
  0
VERTEX
  8
MMIC_Die
  10
0
  20
0
  0
VERTEX
  8
MMIC_Die
  10
3000
  20
0
  0
VERTEX
  8
MMIC_Die
  10
3000
  20
2000
  0
SEQEND
  0
POLYLINE
  8
0_1
  70
1
  66
1
  0
VERTEX
  8
0_1
  10
2278.5
  20
150.75
  0
VERTEX
  8
0_1
  10
2076.5
  20
150.75
  0
VERTEX
  8
0_1
  10
2076.5
  20
252.75
  0
VERTEX
  8
0_1
  10
2278.5
  20
252.75
  0
SEQEND
  0
POLYLINE
  8
0_1
  70
1
  66
1
  0
VERTEX
  8
0_1
  10
2278.5
  20
1747.25
  0
VERTEX
  8
0_1
  10
2076.5
  20
1747.25
  0
VERTEX
  8
0_1
  10
2076.5
  20
1849.25
  0
VERTEX
  8
0_1
  10
2278.5
  20
1849.25
  0
SEQEND
  0
POLYLINE
  8
0_1
  70
1
  66
1
  0
VERTEX
  8
0_1
  10
172.75
  20
924
  0
VERTEX
  8
0_1
  10
172.75
  20
1076
  0
VERTEX
  8
0_1
  10
70.75
  20
1076
  0
VERTEX
  8
0_1
  10
70.75
  20
924
  0
SEQEND
  0
POLYLINE
  8
0_1
  70
1
  66
1
  0
VERTEX
  8
0_1
  10
2827.25
  20
1076
  0
VERTEX
  8
0_1
  10
2827.25
  20
924
  0
VERTEX
  8
0_1
  10
2929.25
  20
924
  0
VERTEX
  8
0_1
  10
2929.25
  20
1076
  0
SEQEND
  0
POLYLINE
  8
0_1
  70
1
  66
1
  0
VERTEX
  8
0_1
  10
1453.5
  20
1849.25
  0
VERTEX
  8
0_1
  10
1351.5
  20
1849.25
  0
VERTEX
  8
0_1
  10
1351.5
  20
1747.25
  0
VERTEX
  8
0_1
  10
1453.5
  20
1747.25
  0
SEQEND
  0
POLYLINE
  8
0_1
  70
1
  66
1
  0
VERTEX
  8
0_1
  10
703.5
  20
150.75
  0
VERTEX
  8
0_1
  10
601.5
  20
150.75
  0
VERTEX
  8
0_1
  10
601.5
  20
252.75
  0
VERTEX
  8
0_1
  10
703.5
  20
252.75
  0
SEQEND
  0
POLYLINE
  8
0_1
  70
1
  66
1
  0
VERTEX
  8
0_1
  10
1453.5
  20
150.75
  0
VERTEX
  8
0_1
  10
1351.5
  20
150.75
  0
VERTEX
  8
0_1
  10
1351.5
  20
252.75
  0
VERTEX
  8
0_1
  10
1453.5
  20
252.75
  0
SEQEND
  0
POLYLINE
  8
0_1
  70
1
  66
1
  0
VERTEX
  8
0_1
  10
703.5
  20
1747.25
  0
VERTEX
  8
0_1
  10
601.5
  20
1747.25
  0
VERTEX
  8
0_1
  10
601.5
  20
1849.25
  0
VERTEX
  8
0_1
  10
703.5
  20
1849.25
  0
SEQEND
  0
POLYLINE
  8
0_5
  70
1
  66
1
  0
VERTEX
  8
0_5
  10
1303.5
  20
1849.25
  0
VERTEX
  8
0_5
  10
1201.5
  20
1849.25
  0
VERTEX
  8
0_5
  10
1201.5
  20
1747.25
  0
VERTEX
  8
0_5
  10
1303.5
  20
1747.25
  0
SEQEND
  0
POLYLINE
  8
0_5
  70
1
  66
1
  0
VERTEX
  8
0_5
  10
1303.5
  20
150.75
  0
VERTEX
  8
0_5
  10
1201.5
  20
150.75
  0
VERTEX
  8
0_5
  10
1201.5
  20
252.75
  0
VERTEX
  8
0_5
  10
1303.5
  20
252.75
  0
SEQEND
  0
POLYLINE
  8
0_5
  70
1
  66
1
  0
VERTEX
  8
0_5
  10
172.75
  20
1099
  0
VERTEX
  8
0_5
  10
172.75
  20
1201
  0
VERTEX
  8
0_5
  10
70.75
  20
1201
  0
VERTEX
  8
0_5
  10
70.75
  20
1099
  0
SEQEND
  0
POLYLINE
  8
0_5
  70
1
  66
1
  0
VERTEX
  8
0_5
  10
2827.25
  20
1201
  0
VERTEX
  8
0_5
  10
2827.25
  20
1099
  0
VERTEX
  8
0_5
  10
2929.25
  20
1099
  0
VERTEX
  8
0_5
  10
2929.25
  20
1201
  0
SEQEND
  0
POLYLINE
  8
0_5
  70
1
  66
1
  0
VERTEX
  8
0_5
  10
553.5
  20
150.75
  0
VERTEX
  8
0_5
  10
451.5
  20
150.75
  0
VERTEX
  8
0_5
  10
451.5
  20
252.75
  0
VERTEX
  8
0_5
  10
553.5
  20
252.75
  0
SEQEND
  0
POLYLINE
  8
0_5
  70
1
  66
1
  0
VERTEX
  8
0_5
  10
553.5
  20
1747.25
  0
VERTEX
  8
0_5
  10
451.5
  20
1747.25
  0
VERTEX
  8
0_5
  10
451.5
  20
1849.25
  0
VERTEX
  8
0_5
  10
553.5
  20
1849.25
  0
SEQEND
  0
POLYLINE
  8
0_5
  70
1
  66
1
  0
VERTEX
  8
0_5
  10
2827.25
  20
901
  0
VERTEX
  8
0_5
  10
2827.25
  20
799
  0
VERTEX
  8
0_5
  10
2929.25
  20
799
  0
VERTEX
  8
0_5
  10
2929.25
  20
901
  0
SEQEND
  0
POLYLINE
  8
0_5
  70
1
  66
1
  0
VERTEX
  8
0_5
  10
2053.5
  20
1747.25
  0
VERTEX
  8
0_5
  10
1951.5
  20
1747.25
  0
VERTEX
  8
0_5
  10
1951.5
  20
1849.25
  0
VERTEX
  8
0_5
  10
2053.5
  20
1849.25
  0
SEQEND
  0
POLYLINE
  8
0_5
  70
1
  66
1
  0
VERTEX
  8
0_5
  10
172.75
  20
799
  0
VERTEX
  8
0_5
  10
172.75
  20
901
  0
VERTEX
  8
0_5
  10
70.75
  20
901
  0
VERTEX
  8
0_5
  10
70.75
  20
799
  0
SEQEND
  0
POLYLINE
  8
0_5
  70
1
  66
1
  0
VERTEX
  8
0_5
  10
2053.5
  20
150.75
  0
VERTEX
  8
0_5
  10
1951.5
  20
150.75
  0
VERTEX
  8
0_5
  10
1951.5
  20
252.75
  0
VERTEX
  8
0_5
  10
2053.5
  20
252.75
  0
SEQEND
  0
POLYLINE
  8
0_5
  70
1
  66
1
  0
VERTEX
  8
0_5
  10
2874.25
  20
752
  0
VERTEX
  8
0_5
  10
2874.25
  20
799
  0
VERTEX
  8
0_5
  10
2827.25
  20
799
  0
VERTEX
  8
0_5
  10
2827.25
  20
752
  0
SEQEND
  0
POLYLINE
  8
0_5
  70
1
  66
1
  0
VERTEX
  8
0_5
  10
498.5
  20
1700.25
  0
VERTEX
  8
0_5
  10
498.5
  20
1747.25
  0
VERTEX
  8
0_5
  10
451.5
  20
1747.25
  0
VERTEX
  8
0_5
  10
451.5
  20
1700.25
  0
SEQEND
  0
POLYLINE
  8
0_5
  70
1
  66
1
  0
VERTEX
  8
0_5
  10
1904.5
  20
205.5
  0
VERTEX
  8
0_5
  10
1951.5
  20
205.5
  0
VERTEX
  8
0_5
  10
1951.5
  20
252.5
  0
VERTEX
  8
0_5
  10
1904.5
  20
252.5
  0
SEQEND
  0
POLYLINE
  8
0_5
  70
1
  66
1
  0
VERTEX
  8
0_5
  10
125.75
  20
752
  0
VERTEX
  8
0_5
  10
125.75
  20
799
  0
VERTEX
  8
0_5
  10
172.75
  20
799
  0
VERTEX
  8
0_5
  10
172.75
  20
752
  0
SEQEND
  0
POLYLINE
  8
0_5
  70
1
  66
1
  0
VERTEX
  8
0_5
  10
125.75
  20
1248
  0
VERTEX
  8
0_5
  10
125.75
  20
1201
  0
VERTEX
  8
0_5
  10
172.75
  20
1201
  0
VERTEX
  8
0_5
  10
172.75
  20
1248
  0
SEQEND
  0
POLYLINE
  8
0_5
  70
1
  66
1
  0
VERTEX
  8
0_5
  10
2874.25
  20
1248
  0
VERTEX
  8
0_5
  10
2874.25
  20
1201
  0
VERTEX
  8
0_5
  10
2827.25
  20
1201
  0
VERTEX
  8
0_5
  10
2827.25
  20
1248
  0
SEQEND
  0
POLYLINE
  8
0_5
  70
1
  66
1
  0
VERTEX
  8
0_5
  10
1308.5
  20
1682.25
  0
VERTEX
  8
0_5
  10
1308.5
  20
1729.25
  0
VERTEX
  8
0_5
  10
1261.5
  20
1729.25
  0
VERTEX
  8
0_5
  10
1261.5
  20
1682.25
  0
SEQEND
  0
POLYLINE
  8
0_5
  70
1
  66
1
  0
VERTEX
  8
0_5
  10
1154.5
  20
205.5
  0
VERTEX
  8
0_5
  10
1201.5
  20
205.5
  0
VERTEX
  8
0_5
  10
1201.5
  20
252.5
  0
VERTEX
  8
0_5
  10
1154.5
  20
252.5
  0
SEQEND
  0
POLYLINE
  8
0_5
  70
1
  66
1
  0
VERTEX
  8
0_5
  10
404.5
  20
177
  0
VERTEX
  8
0_5
  10
451.5
  20
177
  0
VERTEX
  8
0_5
  10
451.5
  20
224
  0
VERTEX
  8
0_5
  10
404.5
  20
224
  0
SEQEND
  0
POLYLINE
  8
0_5
  70
1
  66
1
  0
VERTEX
  8
0_5
  10
1904.5
  20
1747.5
  0
VERTEX
  8
0_5
  10
1951.5
  20
1747.5
  0
VERTEX
  8
0_5
  10
1951.5
  20
1794.5
  0
VERTEX
  8
0_5
  10
1904.5
  20
1794.5
  0
SEQEND
  0
POLYLINE
  8
0_5
  70
1
  66
1
  0
VERTEX
  8
0_5
  10
1302.5
  20
1748.25
  0
VERTEX
  8
0_5
  10
1262.5
  20
1748.25
  0
VERTEX
  8
0_5
  10
1262.5
  20
1728.25
  0
VERTEX
  8
0_5
  10
1302.5
  20
1728.25
  0
SEQEND
  0
POLYLINE
  8
MMIC_Label
  70
1
  66
1
  0
VERTEX
  8
MMIC_Label
  10
166.624
  20
1827.36
  0
VERTEX
  8
MMIC_Label
  10
167.817
  20
1827.261
  0
VERTEX
  8
MMIC_Label
  10
168.81
  20
1826.962
  0
VERTEX
  8
MMIC_Label
  10
169.907
  20
1826.665
  0
VERTEX
  8
MMIC_Label
  10
170.796
  20
1826.268
  0
VERTEX
  8
MMIC_Label
  10
171.89
  20
1825.573
  0
VERTEX
  8
MMIC_Label
  10
172.586
  20
1825.076
  0
VERTEX
  8
MMIC_Label
  10
173.579
  20
1824.082
  0
VERTEX
  8
MMIC_Label
  10
174.575
  20
1822.887
  0
VERTEX
  8
MMIC_Label
  10
175.872
  20
1821.193
  0
VERTEX
  8
MMIC_Label
  10
176.768
  20
1819.496
  0
VERTEX
  8
MMIC_Label
  10
177.868
  20
1817.497
  0
VERTEX
  8
MMIC_Label
  10
178.967
  20
1815.297
  0
VERTEX
  8
MMIC_Label
  10
204.566
  20
1765.566
  0
VERTEX
  8
MMIC_Label
  10
200
  20
1761
  0
VERTEX
  8
MMIC_Label
  10
141
  20
1761
  0
VERTEX
  8
MMIC_Label
  10
135.899
  20
1766.101
  0
VERTEX
  8
MMIC_Label
  10
145.487
  20
1776.715
  0
VERTEX
  8
MMIC_Label
  10
145.635
  20
1776.864
  0
VERTEX
  8
MMIC_Label
  10
145.796
  20
1776.998
  0
VERTEX
  8
MMIC_Label
  10
145.968
  20
1777.117
  0
VERTEX
  8
MMIC_Label
  10
146.152
  20
1777.22
  0
VERTEX
  8
MMIC_Label
  10
146.343
  20
1777.304
  0
VERTEX
  8
MMIC_Label
  10
146.542
  20
1777.371
  0
VERTEX
  8
MMIC_Label
  10
146.747
  20
1777.419
  0
VERTEX
  8
MMIC_Label
  10
146.955
  20
1777.447
  0
VERTEX
  8
MMIC_Label
  10
147.164
  20
1777.456
  0
VERTEX
  8
MMIC_Label
  10
170.657
  20
1777.373
  0
VERTEX
  8
MMIC_Label
  10
172.608
  20
1781.005
  0
VERTEX
  8
MMIC_Label
  10
162.536
  20
1801
  0
VERTEX
  8
MMIC_Label
  10
157.128
  20
1801
  0
VERTEX
  8
MMIC_Label
  10
130.796
  20
1771.204
  0
VERTEX
  8
MMIC_Label
  10
125.314
  20
1765
  0
VERTEX
  8
MMIC_Label
  10
120.009
  20
1765
  0
VERTEX
  8
MMIC_Label
  10
119.888
  20
1765.167
  0
VERTEX
  8
MMIC_Label
  10
118.191
  20
1767.866
  0
VERTEX
  8
MMIC_Label
  10
116.392
  20
1771.063
  0
VERTEX
  8
MMIC_Label
  10
114.794
  20
1774.358
  0
VERTEX
  8
MMIC_Label
  10
113.5
  20
1777.643
  0
VERTEX
  8
MMIC_Label
  10
113.5
  20
1777.903
  0
VERTEX
  8
MMIC_Label
  10
118.463
  20
1783.537
  0
VERTEX
  8
MMIC_Label
  10
149.781
  20
1819.083
  0
VERTEX
  8
MMIC_Label
  10
151.48
  20
1820.981
  0
VERTEX
  8
MMIC_Label
  10
153.077
  20
1822.476
  0
VERTEX
  8
MMIC_Label
  10
154.871
  20
1823.873
  0
VERTEX
  8
MMIC_Label
  10
156.867
  20
1825.172
  0
VERTEX
  8
MMIC_Label
  10
158.263
  20
1826.067
  0
VERTEX
  8
MMIC_Label
  10
160.052
  20
1826.762
  0
VERTEX
  8
MMIC_Label
  10
161.149
  20
1827.062
  0
VERTEX
  8
MMIC_Label
  10
161.942
  20
1827.26
  0
VERTEX
  8
MMIC_Label
  10
163.235
  20
1827.36
  0
VERTEX
  8
MMIC_Label
  10
164.93
  20
1827.46
  0
SEQEND
  0
POLYLINE
  8
MMIC_Label
  70
1
  66
1
  0
VERTEX
  8
MMIC_Label
  10
288.916
  20
1823.084
  0
VERTEX
  8
MMIC_Label
  10
288.878
  20
1822.999
  0
VERTEX
  8
MMIC_Label
  10
288.772
  20
1822.809
  0
VERTEX
  8
MMIC_Label
  10
288.647
  20
1822.63
  0
VERTEX
  8
MMIC_Label
  10
288.506
  20
1822.464
  0
VERTEX
  8
MMIC_Label
  10
277.264
  20
1810.501
  0
VERTEX
  8
MMIC_Label
  10
277.099
  20
1810.343
  0
VERTEX
  8
MMIC_Label
  10
276.919
  20
1810.202
  0
VERTEX
  8
MMIC_Label
  10
276.725
  20
1810.08
  0
VERTEX
  8
MMIC_Label
  10
276.52
  20
1809.978
  0
VERTEX
  8
MMIC_Label
  10
276.306
  20
1809.898
  0
VERTEX
  8
MMIC_Label
  10
276.085
  20
1809.84
  0
VERTEX
  8
MMIC_Label
  10
275.859
  20
1809.804
  0
VERTEX
  8
MMIC_Label
  10
275.631
  20
1809.792
  0
VERTEX
  8
MMIC_Label
  10
244.829
  20
1809.695
  0
VERTEX
  8
MMIC_Label
  10
240.928
  20
1809.595
  0
VERTEX
  8
MMIC_Label
  10
238.721
  20
1809.495
  0
VERTEX
  8
MMIC_Label
  10
236.614
  20
1808.994
  0
VERTEX
  8
MMIC_Label
  10
236
  20
1808.841
  0
VERTEX
  8
MMIC_Label
  10
234.209
  20
1808.393
  0
VERTEX
  8
MMIC_Label
  10
231.943
  20
1807.576
  0
VERTEX
  8
MMIC_Label
  10
231.701
  20
1807.489
  0
VERTEX
  8
MMIC_Label
  10
229.794
  20
1806.386
  0
VERTEX
  8
MMIC_Label
  10
227.89
  20
1805.182
  0
VERTEX
  8
MMIC_Label
  10
225.883
  20
1803.679
  0
VERTEX
  8
MMIC_Label
  10
224.376
  20
1802.172
  0
VERTEX
  8
MMIC_Label
  10
224.136
  20
1801.864
  0
VERTEX
  8
MMIC_Label
  10
222.973
  20
1800.365
  0
VERTEX
  8
MMIC_Label
  10
222.068
  20
1798.859
  0
VERTEX
  8
MMIC_Label
  10
221.567
  20
1797.854
  0
VERTEX
  8
MMIC_Label
  10
220.965
  20
1796.448
  0
VERTEX
  8
MMIC_Label
  10
220.561
  20
1795.141
  0
VERTEX
  8
MMIC_Label
  10
220.261
  20
1793.534
  0
VERTEX
  8
MMIC_Label
  10
220.06
  20
1791.73
  0
VERTEX
  8
MMIC_Label
  10
220.06
  20
1790.219
  0
VERTEX
  8
MMIC_Label
  10
220.26
  20
1788.917
  0
VERTEX
  8
MMIC_Label
  10
220.361
  20
1787.912
  0
VERTEX
  8
MMIC_Label
  10
220.765
  20
1786.299
  0
VERTEX
  8
MMIC_Label
  10
221.772
  20
1784.388
  0
VERTEX
  8
MMIC_Label
  10
222.775
  20
1783.082
  0
VERTEX
  8
MMIC_Label
  10
223.58
  20
1782.076
  0
VERTEX
  8
MMIC_Label
  10
225.793
  20
1780.267
  0
VERTEX
  8
MMIC_Label
  10
228.403
  20
1778.961
  0
VERTEX
  8
MMIC_Label
  10
230.21
  20
1778.357
  0
VERTEX
  8
MMIC_Label
  10
231.515
  20
1778.056
  0
VERTEX
  8
MMIC_Label
  10
231.943
  20
1777.967
  0
VERTEX
  8
MMIC_Label
  10
233.923
  20
1777.555
  0
VERTEX
  8
MMIC_Label
  10
234.828
  20
1777.555
  0
VERTEX
  8
MMIC_Label
  10
236
  20
1777.465
  0
VERTEX
  8
MMIC_Label
  10
236.128
  20
1777.455
  0
VERTEX
  8
MMIC_Label
  10
260.379
  20
1777.455
  0
VERTEX
  8
MMIC_Label
  10
260.605
  20
1777.466
  0
VERTEX
  8
MMIC_Label
  10
260.828
  20
1777.5
  0
VERTEX
  8
MMIC_Label
  10
261.047
  20
1777.557
  0
VERTEX
  8
MMIC_Label
  10
261.259
  20
1777.634
  0
VERTEX
  8
MMIC_Label
  10
261.463
  20
1777.733
  0
VERTEX
  8
MMIC_Label
  10
261.655
  20
1777.852
  0
VERTEX
  8
MMIC_Label
  10
261.835
  20
1777.989
  0
VERTEX
  8
MMIC_Label
  10
261.999
  20
1778.144
  0
VERTEX
  8
MMIC_Label
  10
262.148
  20
1778.315
  0
VERTEX
  8
MMIC_Label
  10
262.279
  20
1778.499
  0
VERTEX
  8
MMIC_Label
  10
262.39
  20
1778.696
  0
VERTEX
  8
MMIC_Label
  10
262.481
  20
1778.903
  0
VERTEX
  8
MMIC_Label
  10
262.551
  20
1779.118
  0
VERTEX
  8
MMIC_Label
  10
262.599
  20
1779.338
  0
VERTEX
  8
MMIC_Label
  10
263.432
  20
1784.382
  0
VERTEX
  8
MMIC_Label
  10
260.319
  20
1787.495
  0
VERTEX
  8
MMIC_Label
  10
236
  20
1787.495
  0
VERTEX
  8
MMIC_Label
  10
236
  20
1793.389
  0
VERTEX
  8
MMIC_Label
  10
244.658
  20
1801.655
  0
VERTEX
  8
MMIC_Label
  10
282.345
  20
1801.655
  0
VERTEX
  8
MMIC_Label
  10
285.668
  20
1798.332
  0
VERTEX
  8
MMIC_Label
  10
279.497
  20
1762.864
  0
VERTEX
  8
MMIC_Label
  10
279.448
  20
1762.644
  0
VERTEX
  8
MMIC_Label
  10
279.376
  20
1762.431
  0
VERTEX
  8
MMIC_Label
  10
279.284
  20
1762.225
  0
VERTEX
  8
MMIC_Label
  10
279.172
  20
1762.03
  0
VERTEX
  8
MMIC_Label
  10
279.04
  20
1761.848
  0
VERTEX
  8
MMIC_Label
  10
278.892
  20
1761.679
  0
VERTEX
  8
MMIC_Label
  10
278.727
  20
1761.526
  0
VERTEX
  8
MMIC_Label
  10
278.547
  20
1761.39
  0
VERTEX
  8
MMIC_Label
  10
278.355
  20
1761.273
  0
VERTEX
  8
MMIC_Label
  10
278.152
  20
1761.175
  0
VERTEX
  8
MMIC_Label
  10
277.941
  20
1761.098
  0
VERTEX
  8
MMIC_Label
  10
277.723
  20
1761.043
  0
VERTEX
  8
MMIC_Label
  10
277.5
  20
1761.01
  0
VERTEX
  8
MMIC_Label
  10
277.275
  20
1760.999
  0
VERTEX
  8
MMIC_Label
  10
264.973
  20
1761.027
  0
VERTEX
  8
MMIC_Label
  10
259.105
  20
1761.04
  0
VERTEX
  8
MMIC_Label
  10
236
  20
1761.092
  0
VERTEX
  8
MMIC_Label
  10
234.631
  20
1761.095
  0
VERTEX
  8
MMIC_Label
  10
231.943
  20
1761.166
  0
VERTEX
  8
MMIC_Label
  10
230.831
  20
1761.195
  0
VERTEX
  8
MMIC_Label
  10
230.732
  20
1761.195
  0
VERTEX
  8
MMIC_Label
  10
229.232
  20
1761.295
  0
VERTEX
  8
MMIC_Label
  10
227.638
  20
1761.295
  0
VERTEX
  8
MMIC_Label
  10
222.749
  20
1762.393
  0
VERTEX
  8
MMIC_Label
  10
220.452
  20
1763.09
  0
VERTEX
  8
MMIC_Label
  10
217.159
  20
1764.289
  0
VERTEX
  8
MMIC_Label
  10
214.965
  20
1765.486
  0
VERTEX
  8
MMIC_Label
  10
212.27
  20
1767.083
  0
VERTEX
  8
MMIC_Label
  10
210.074
  20
1768.68
  0
VERTEX
  8
MMIC_Label
  10
207.979
  20
1770.575
  0
VERTEX
  8
MMIC_Label
  10
206.784
  20
1771.869
  0
VERTEX
  8
MMIC_Label
  10
205.086
  20
1774.066
  0
VERTEX
  8
MMIC_Label
  10
203.991
  20
1775.661
  0
VERTEX
  8
MMIC_Label
  10
202.793
  20
1777.858
  0
VERTEX
  8
MMIC_Label
  10
201.995
  20
1779.552
  0
VERTEX
  8
MMIC_Label
  10
201.198
  20
1781.945
  0
VERTEX
  8
MMIC_Label
  10
200.799
  20
1783.539
  0
VERTEX
  8
MMIC_Label
  10
200.3
  20
1786.433
  0
VERTEX
  8
MMIC_Label
  10
200.2
  20
1787.927
  0
VERTEX
  8
MMIC_Label
  10
200.2
  20
1790.024
  0
VERTEX
  8
MMIC_Label
  10
200.3
  20
1792.124
  0
VERTEX
  8
MMIC_Label
  10
200.3
  20
1793.819
  0
VERTEX
  8
MMIC_Label
  10
200.799
  20
1796.611
  0
VERTEX
  8
MMIC_Label
  10
201.398
  20
1799.104
  0
VERTEX
  8
MMIC_Label
  10
202.294
  20
1801.398
  0
VERTEX
  8
MMIC_Label
  10
203.393
  20
1803.892
  0
VERTEX
  8
MMIC_Label
  10
204.788
  20
1806.289
  0
VERTEX
  8
MMIC_Label
  10
206.386
  20
1808.683
  0
VERTEX
  8
MMIC_Label
  10
208.184
  20
1810.881
  0
VERTEX
  8
MMIC_Label
  10
210.08
  20
1813.076
  0
VERTEX
  8
MMIC_Label
  10
211.561
  20
1814.439
  0
VERTEX
  8
MMIC_Label
  10
212.574
  20
1815.371
  0
VERTEX
  8
MMIC_Label
  10
215.171
  20
1817.368
  0
VERTEX
  8
MMIC_Label
  10
217.966
  20
1819.164
  0
VERTEX
  8
MMIC_Label
  10
221.06
  20
1820.862
  0
VERTEX
  8
MMIC_Label
  10
224.357
  20
1822.261
  0
VERTEX
  8
MMIC_Label
  10
227.752
  20
1823.56
  0
VERTEX
  8
MMIC_Label
  10
231.349
  20
1824.657
  0
VERTEX
  8
MMIC_Label
  10
231.943
  20
1824.785
  0
VERTEX
  8
MMIC_Label
  10
235.043
  20
1825.456
  0
VERTEX
  8
MMIC_Label
  10
236
  20
1825.603
  0
VERTEX
  8
MMIC_Label
  10
236.341
  20
1825.656
  0
VERTEX
  8
MMIC_Label
  10
238.338
  20
1825.955
  0
VERTEX
  8
MMIC_Label
  10
240.237
  20
1826.155
  0
VERTEX
  8
MMIC_Label
  10
241.532
  20
1826.255
  0
VERTEX
  8
MMIC_Label
  10
285.745
  20
1826.255
  0
SEQEND
  0
POLYLINE
  8
MMIC_Label
  70
1
  66
1
  0
VERTEX
  8
MMIC_Label
  10
132.6
  20
1294.122
  0
VERTEX
  8
MMIC_Label
  10
123.2
  20
1303.522
  0
VERTEX
  8
MMIC_Label
  10
129.3
  20
1309.622
  0
VERTEX
  8
MMIC_Label
  10
129.3
  20
1319.822
  0
VERTEX
  8
MMIC_Label
  10
123.8
  20
1325.322
  0
VERTEX
  8
MMIC_Label
  10
102.8
  20
1325.322
  0
VERTEX
  8
MMIC_Label
  10
102.8
  20
1290.322
  0
VERTEX
  8
MMIC_Label
  10
107.8
  20
1290.322
  0
VERTEX
  8
MMIC_Label
  10
107.8
  20
1319.322
  0
VERTEX
  8
MMIC_Label
  10
121.8
  20
1319.322
  0
VERTEX
  8
MMIC_Label
  10
124.3
  20
1316.822
  0
VERTEX
  8
MMIC_Label
  10
124.3
  20
1311.822
  0
VERTEX
  8
MMIC_Label
  10
121.8
  20
1309.322
  0
VERTEX
  8
MMIC_Label
  10
112.8
  20
1309.322
  0
VERTEX
  8
MMIC_Label
  10
112.8
  20
1304.322
  0
VERTEX
  8
MMIC_Label
  10
115.2
  20
1304.322
  0
VERTEX
  8
MMIC_Label
  10
129
  20
1290.522
  0
SEQEND
  0
POLYLINE
  8
MMIC_Label
  70
1
  66
1
  0
VERTEX
  8
MMIC_Label
  10
132.6
  20
1294.122
  0
VERTEX
  8
MMIC_Label
  10
123.2
  20
1303.522
  0
VERTEX
  8
MMIC_Label
  10
129.3
  20
1309.622
  0
VERTEX
  8
MMIC_Label
  10
129.3
  20
1319.822
  0
VERTEX
  8
MMIC_Label
  10
123.8
  20
1325.322
  0
VERTEX
  8
MMIC_Label
  10
102.8
  20
1325.322
  0
VERTEX
  8
MMIC_Label
  10
102.8
  20
1290.322
  0
VERTEX
  8
MMIC_Label
  10
107.8
  20
1290.322
  0
VERTEX
  8
MMIC_Label
  10
107.8
  20
1319.322
  0
VERTEX
  8
MMIC_Label
  10
121.8
  20
1319.322
  0
VERTEX
  8
MMIC_Label
  10
124.3
  20
1316.822
  0
VERTEX
  8
MMIC_Label
  10
124.3
  20
1311.822
  0
VERTEX
  8
MMIC_Label
  10
121.8
  20
1309.322
  0
VERTEX
  8
MMIC_Label
  10
112.8
  20
1309.322
  0
VERTEX
  8
MMIC_Label
  10
112.8
  20
1304.322
  0
VERTEX
  8
MMIC_Label
  10
115.2
  20
1304.322
  0
VERTEX
  8
MMIC_Label
  10
129
  20
1290.522
  0
SEQEND
  0
POLYLINE
  8
MMIC_Label
  70
1
  66
1
  0
VERTEX
  8
MMIC_Label
  10
1949.2
  20
310.4
  0
VERTEX
  8
MMIC_Label
  10
1944.2
  20
310.4
  0
VERTEX
  8
MMIC_Label
  10
1944.2
  20
295
  0
VERTEX
  8
MMIC_Label
  10
1939.1
  20
295
  0
VERTEX
  8
MMIC_Label
  10
1925.2
  20
308.9
  0
VERTEX
  8
MMIC_Label
  10
1925.2
  20
310.4
  0
VERTEX
  8
MMIC_Label
  10
1920.2
  20
310.4
  0
VERTEX
  8
MMIC_Label
  10
1920.2
  20
275.4
  0
VERTEX
  8
MMIC_Label
  10
1925.2
  20
275.4
  0
VERTEX
  8
MMIC_Label
  10
1925.2
  20
296.7
  0
VERTEX
  8
MMIC_Label
  10
1930.3
  20
296.7
  0
VERTEX
  8
MMIC_Label
  10
1944.2
  20
282.8
  0
VERTEX
  8
MMIC_Label
  10
1944.2
  20
275.4
  0
VERTEX
  8
MMIC_Label
  10
1949.2
  20
275.4
  0
SEQEND
  0
POLYLINE
  8
MMIC_Label
  70
1
  66
1
  0
VERTEX
  8
MMIC_Label
  10
391.2
  20
1739.4
  0
VERTEX
  8
MMIC_Label
  10
386.2
  20
1739.4
  0
VERTEX
  8
MMIC_Label
  10
386.2
  20
1724
  0
VERTEX
  8
MMIC_Label
  10
381.1
  20
1724
  0
VERTEX
  8
MMIC_Label
  10
367.2
  20
1737.9
  0
VERTEX
  8
MMIC_Label
  10
367.2
  20
1739.4
  0
VERTEX
  8
MMIC_Label
  10
362.2
  20
1739.4
  0
VERTEX
  8
MMIC_Label
  10
362.2
  20
1704.4
  0
VERTEX
  8
MMIC_Label
  10
367.2
  20
1704.4
  0
VERTEX
  8
MMIC_Label
  10
367.2
  20
1725.7
  0
VERTEX
  8
MMIC_Label
  10
372.3
  20
1725.7
  0
VERTEX
  8
MMIC_Label
  10
386.2
  20
1711.8
  0
VERTEX
  8
MMIC_Label
  10
386.2
  20
1704.4
  0
VERTEX
  8
MMIC_Label
  10
391.2
  20
1704.4
  0
SEQEND
  0
POLYLINE
  8
MMIC_Label
  70
1
  66
1
  0
VERTEX
  8
MMIC_Label
  10
356.2
  20
201.4
  0
VERTEX
  8
MMIC_Label
  10
351.2
  20
201.4
  0
VERTEX
  8
MMIC_Label
  10
351.2
  20
186
  0
VERTEX
  8
MMIC_Label
  10
346.1
  20
186
  0
VERTEX
  8
MMIC_Label
  10
332.2
  20
199.9
  0
VERTEX
  8
MMIC_Label
  10
332.2
  20
201.4
  0
VERTEX
  8
MMIC_Label
  10
327.2
  20
201.4
  0
VERTEX
  8
MMIC_Label
  10
327.2
  20
166.4
  0
VERTEX
  8
MMIC_Label
  10
332.2
  20
166.4
  0
VERTEX
  8
MMIC_Label
  10
332.2
  20
187.7
  0
VERTEX
  8
MMIC_Label
  10
337.3
  20
187.7
  0
VERTEX
  8
MMIC_Label
  10
351.2
  20
173.8
  0
VERTEX
  8
MMIC_Label
  10
351.2
  20
166.4
  0
VERTEX
  8
MMIC_Label
  10
356.2
  20
166.4
  0
SEQEND
  0
POLYLINE
  8
MMIC_Label
  70
1
  66
1
  0
VERTEX
  8
MMIC_Label
  10
1264.2
  20
350.4
  0
VERTEX
  8
MMIC_Label
  10
1259.2
  20
350.4
  0
VERTEX
  8
MMIC_Label
  10
1259.2
  20
335
  0
VERTEX
  8
MMIC_Label
  10
1254.1
  20
335
  0
VERTEX
  8
MMIC_Label
  10
1240.2
  20
348.9
  0
VERTEX
  8
MMIC_Label
  10
1240.2
  20
350.4
  0
VERTEX
  8
MMIC_Label
  10
1235.2
  20
350.4
  0
VERTEX
  8
MMIC_Label
  10
1235.2
  20
315.4
  0
VERTEX
  8
MMIC_Label
  10
1240.2
  20
315.4
  0
VERTEX
  8
MMIC_Label
  10
1240.2
  20
336.7
  0
VERTEX
  8
MMIC_Label
  10
1245.3
  20
336.7
  0
VERTEX
  8
MMIC_Label
  10
1259.2
  20
322.8
  0
VERTEX
  8
MMIC_Label
  10
1259.2
  20
315.4
  0
VERTEX
  8
MMIC_Label
  10
1264.2
  20
315.4
  0
SEQEND
  0
POLYLINE
  8
MMIC_Label
  70
1
  66
1
  0
VERTEX
  8
MMIC_Label
  10
1944.2
  20
1720.4
  0
VERTEX
  8
MMIC_Label
  10
1939.2
  20
1720.4
  0
VERTEX
  8
MMIC_Label
  10
1939.2
  20
1705
  0
VERTEX
  8
MMIC_Label
  10
1934.1
  20
1705
  0
VERTEX
  8
MMIC_Label
  10
1920.2
  20
1718.9
  0
VERTEX
  8
MMIC_Label
  10
1920.2
  20
1720.4
  0
VERTEX
  8
MMIC_Label
  10
1915.2
  20
1720.4
  0
VERTEX
  8
MMIC_Label
  10
1915.2
  20
1685.4
  0
VERTEX
  8
MMIC_Label
  10
1920.2
  20
1685.4
  0
VERTEX
  8
MMIC_Label
  10
1920.2
  20
1706.7
  0
VERTEX
  8
MMIC_Label
  10
1925.3
  20
1706.7
  0
VERTEX
  8
MMIC_Label
  10
1939.2
  20
1692.8
  0
VERTEX
  8
MMIC_Label
  10
1939.2
  20
1685.4
  0
VERTEX
  8
MMIC_Label
  10
1944.2
  20
1685.4
  0
SEQEND
  0
POLYLINE
  8
MMIC_Label
  70
1
  66
1
  0
VERTEX
  8
MMIC_Label
  10
226.6
  20
1325.322
  0
VERTEX
  8
MMIC_Label
  10
221.6
  20
1325.322
  0
VERTEX
  8
MMIC_Label
  10
221.6
  20
1309.922
  0
VERTEX
  8
MMIC_Label
  10
216.5
  20
1309.922
  0
VERTEX
  8
MMIC_Label
  10
202.6
  20
1323.822
  0
VERTEX
  8
MMIC_Label
  10
202.6
  20
1325.322
  0
VERTEX
  8
MMIC_Label
  10
197.6
  20
1325.322
  0
VERTEX
  8
MMIC_Label
  10
197.6
  20
1290.322
  0
VERTEX
  8
MMIC_Label
  10
202.6
  20
1290.322
  0
VERTEX
  8
MMIC_Label
  10
202.6
  20
1311.622
  0
VERTEX
  8
MMIC_Label
  10
207.7
  20
1311.622
  0
VERTEX
  8
MMIC_Label
  10
221.6
  20
1297.722
  0
VERTEX
  8
MMIC_Label
  10
221.6
  20
1290.322
  0
VERTEX
  8
MMIC_Label
  10
226.6
  20
1290.322
  0
SEQEND
  0
POLYLINE
  8
MMIC_Label
  70
1
  66
1
  0
VERTEX
  8
MMIC_Label
  10
356.2
  20
201.4
  0
VERTEX
  8
MMIC_Label
  10
351.2
  20
201.4
  0
VERTEX
  8
MMIC_Label
  10
351.2
  20
186
  0
VERTEX
  8
MMIC_Label
  10
346.1
  20
186
  0
VERTEX
  8
MMIC_Label
  10
332.2
  20
199.9
  0
VERTEX
  8
MMIC_Label
  10
332.2
  20
201.4
  0
VERTEX
  8
MMIC_Label
  10
327.2
  20
201.4
  0
VERTEX
  8
MMIC_Label
  10
327.2
  20
166.4
  0
VERTEX
  8
MMIC_Label
  10
332.2
  20
166.4
  0
VERTEX
  8
MMIC_Label
  10
332.2
  20
187.7
  0
VERTEX
  8
MMIC_Label
  10
337.3
  20
187.7
  0
VERTEX
  8
MMIC_Label
  10
351.2
  20
173.8
  0
VERTEX
  8
MMIC_Label
  10
351.2
  20
166.4
  0
VERTEX
  8
MMIC_Label
  10
356.2
  20
166.4
  0
SEQEND
  0
POLYLINE
  8
MMIC_Label
  70
1
  66
1
  0
VERTEX
  8
MMIC_Label
  10
226.6
  20
1325.322
  0
VERTEX
  8
MMIC_Label
  10
221.6
  20
1325.322
  0
VERTEX
  8
MMIC_Label
  10
221.6
  20
1309.922
  0
VERTEX
  8
MMIC_Label
  10
216.5
  20
1309.922
  0
VERTEX
  8
MMIC_Label
  10
202.6
  20
1323.822
  0
VERTEX
  8
MMIC_Label
  10
202.6
  20
1325.322
  0
VERTEX
  8
MMIC_Label
  10
197.6
  20
1325.322
  0
VERTEX
  8
MMIC_Label
  10
197.6
  20
1290.322
  0
VERTEX
  8
MMIC_Label
  10
202.6
  20
1290.322
  0
VERTEX
  8
MMIC_Label
  10
202.6
  20
1311.622
  0
VERTEX
  8
MMIC_Label
  10
207.7
  20
1311.622
  0
VERTEX
  8
MMIC_Label
  10
221.6
  20
1297.722
  0
VERTEX
  8
MMIC_Label
  10
221.6
  20
1290.322
  0
VERTEX
  8
MMIC_Label
  10
226.6
  20
1290.322
  0
SEQEND
  0
POLYLINE
  8
MMIC_Label
  70
1
  66
1
  0
VERTEX
  8
MMIC_Label
  10
1264.2
  20
350.4
  0
VERTEX
  8
MMIC_Label
  10
1259.2
  20
350.4
  0
VERTEX
  8
MMIC_Label
  10
1259.2
  20
335
  0
VERTEX
  8
MMIC_Label
  10
1254.1
  20
335
  0
VERTEX
  8
MMIC_Label
  10
1240.2
  20
348.9
  0
VERTEX
  8
MMIC_Label
  10
1240.2
  20
350.4
  0
VERTEX
  8
MMIC_Label
  10
1235.2
  20
350.4
  0
VERTEX
  8
MMIC_Label
  10
1235.2
  20
315.4
  0
VERTEX
  8
MMIC_Label
  10
1240.2
  20
315.4
  0
VERTEX
  8
MMIC_Label
  10
1240.2
  20
336.7
  0
VERTEX
  8
MMIC_Label
  10
1245.3
  20
336.7
  0
VERTEX
  8
MMIC_Label
  10
1259.2
  20
322.8
  0
VERTEX
  8
MMIC_Label
  10
1259.2
  20
315.4
  0
VERTEX
  8
MMIC_Label
  10
1264.2
  20
315.4
  0
SEQEND
  0
POLYLINE
  8
MMIC_Label
  70
1
  66
1
  0
VERTEX
  8
MMIC_Label
  10
1944.2
  20
1720.4
  0
VERTEX
  8
MMIC_Label
  10
1939.2
  20
1720.4
  0
VERTEX
  8
MMIC_Label
  10
1939.2
  20
1705
  0
VERTEX
  8
MMIC_Label
  10
1934.1
  20
1705
  0
VERTEX
  8
MMIC_Label
  10
1920.2
  20
1718.9
  0
VERTEX
  8
MMIC_Label
  10
1920.2
  20
1720.4
  0
VERTEX
  8
MMIC_Label
  10
1915.2
  20
1720.4
  0
VERTEX
  8
MMIC_Label
  10
1915.2
  20
1685.4
  0
VERTEX
  8
MMIC_Label
  10
1920.2
  20
1685.4
  0
VERTEX
  8
MMIC_Label
  10
1920.2
  20
1706.7
  0
VERTEX
  8
MMIC_Label
  10
1925.3
  20
1706.7
  0
VERTEX
  8
MMIC_Label
  10
1939.2
  20
1692.8
  0
VERTEX
  8
MMIC_Label
  10
1939.2
  20
1685.4
  0
VERTEX
  8
MMIC_Label
  10
1944.2
  20
1685.4
  0
SEQEND
  0
POLYLINE
  8
MMIC_Label
  70
1
  66
1
  0
VERTEX
  8
MMIC_Label
  10
391.2
  20
1739.4
  0
VERTEX
  8
MMIC_Label
  10
386.2
  20
1739.4
  0
VERTEX
  8
MMIC_Label
  10
386.2
  20
1724
  0
VERTEX
  8
MMIC_Label
  10
381.1
  20
1724
  0
VERTEX
  8
MMIC_Label
  10
367.2
  20
1737.9
  0
VERTEX
  8
MMIC_Label
  10
367.2
  20
1739.4
  0
VERTEX
  8
MMIC_Label
  10
362.2
  20
1739.4
  0
VERTEX
  8
MMIC_Label
  10
362.2
  20
1704.4
  0
VERTEX
  8
MMIC_Label
  10
367.2
  20
1704.4
  0
VERTEX
  8
MMIC_Label
  10
367.2
  20
1725.7
  0
VERTEX
  8
MMIC_Label
  10
372.3
  20
1725.7
  0
VERTEX
  8
MMIC_Label
  10
386.2
  20
1711.8
  0
VERTEX
  8
MMIC_Label
  10
386.2
  20
1704.4
  0
VERTEX
  8
MMIC_Label
  10
391.2
  20
1704.4
  0
SEQEND
  0
POLYLINE
  8
MMIC_Label
  70
1
  66
1
  0
VERTEX
  8
MMIC_Label
  10
1949.2
  20
310.4
  0
VERTEX
  8
MMIC_Label
  10
1944.2
  20
310.4
  0
VERTEX
  8
MMIC_Label
  10
1944.2
  20
295
  0
VERTEX
  8
MMIC_Label
  10
1939.1
  20
295
  0
VERTEX
  8
MMIC_Label
  10
1925.2
  20
308.9
  0
VERTEX
  8
MMIC_Label
  10
1925.2
  20
310.4
  0
VERTEX
  8
MMIC_Label
  10
1920.2
  20
310.4
  0
VERTEX
  8
MMIC_Label
  10
1920.2
  20
275.4
  0
VERTEX
  8
MMIC_Label
  10
1925.2
  20
275.4
  0
VERTEX
  8
MMIC_Label
  10
1925.2
  20
296.7
  0
VERTEX
  8
MMIC_Label
  10
1930.3
  20
296.7
  0
VERTEX
  8
MMIC_Label
  10
1944.2
  20
282.8
  0
VERTEX
  8
MMIC_Label
  10
1944.2
  20
275.4
  0
VERTEX
  8
MMIC_Label
  10
1949.2
  20
275.4
  0
SEQEND
  0
POLYLINE
  8
MMIC_Label
  70
1
  66
1
  0
VERTEX
  8
MMIC_Label
  10
468.233
  20
1632.933
  0
VERTEX
  8
MMIC_Label
  10
468.233
  20
1654.433
  0
VERTEX
  8
MMIC_Label
  10
473.233
  20
1654.433
  0
VERTEX
  8
MMIC_Label
  10
473.233
  20
1635.133
  0
VERTEX
  8
MMIC_Label
  10
481.733
  20
1626.633
  0
VERTEX
  8
MMIC_Label
  10
490.233
  20
1635.133
  0
VERTEX
  8
MMIC_Label
  10
490.233
  20
1654.433
  0
VERTEX
  8
MMIC_Label
  10
495.233
  20
1654.433
  0
VERTEX
  8
MMIC_Label
  10
495.233
  20
1632.933
  0
VERTEX
  8
MMIC_Label
  10
481.733
  20
1619.433
  0
SEQEND
  0
POLYLINE
  8
MMIC_Label
  70
1
  66
1
  0
VERTEX
  8
MMIC_Label
  10
2021.2
  20
288.9
  0
VERTEX
  8
MMIC_Label
  10
2021.2
  20
310.4
  0
VERTEX
  8
MMIC_Label
  10
2026.2
  20
310.4
  0
VERTEX
  8
MMIC_Label
  10
2026.2
  20
291.1
  0
VERTEX
  8
MMIC_Label
  10
2034.7
  20
282.6
  0
VERTEX
  8
MMIC_Label
  10
2043.2
  20
291.1
  0
VERTEX
  8
MMIC_Label
  10
2043.2
  20
310.4
  0
VERTEX
  8
MMIC_Label
  10
2048.2
  20
310.4
  0
VERTEX
  8
MMIC_Label
  10
2048.2
  20
288.9
  0
VERTEX
  8
MMIC_Label
  10
2034.7
  20
275.4
  0
SEQEND
  0
POLYLINE
  8
MMIC_Label
  70
1
  66
1
  0
VERTEX
  8
MMIC_Label
  10
1353.2
  20
331.9
  0
VERTEX
  8
MMIC_Label
  10
1353.2
  20
353.4
  0
VERTEX
  8
MMIC_Label
  10
1358.2
  20
353.4
  0
VERTEX
  8
MMIC_Label
  10
1358.2
  20
334.1
  0
VERTEX
  8
MMIC_Label
  10
1366.7
  20
325.6
  0
VERTEX
  8
MMIC_Label
  10
1375.2
  20
334.1
  0
VERTEX
  8
MMIC_Label
  10
1375.2
  20
353.4
  0
VERTEX
  8
MMIC_Label
  10
1380.2
  20
353.4
  0
VERTEX
  8
MMIC_Label
  10
1380.2
  20
331.9
  0
VERTEX
  8
MMIC_Label
  10
1366.7
  20
318.4
  0
SEQEND
  0
POLYLINE
  8
MMIC_Label
  70
1
  66
1
  0
VERTEX
  8
MMIC_Label
  10
2018.2
  20
1699.9
  0
VERTEX
  8
MMIC_Label
  10
2018.2
  20
1721.4
  0
VERTEX
  8
MMIC_Label
  10
2023.2
  20
1721.4
  0
VERTEX
  8
MMIC_Label
  10
2023.2
  20
1702.1
  0
VERTEX
  8
MMIC_Label
  10
2031.7
  20
1693.6
  0
VERTEX
  8
MMIC_Label
  10
2040.2
  20
1702.1
  0
VERTEX
  8
MMIC_Label
  10
2040.2
  20
1721.4
  0
VERTEX
  8
MMIC_Label
  10
2045.2
  20
1721.4
  0
VERTEX
  8
MMIC_Label
  10
2045.2
  20
1699.9
  0
VERTEX
  8
MMIC_Label
  10
2031.7
  20
1686.4
  0
SEQEND
  0
POLYLINE
  8
MMIC_Label
  70
1
  66
1
  0
VERTEX
  8
MMIC_Label
  10
1353.2
  20
331.9
  0
VERTEX
  8
MMIC_Label
  10
1353.2
  20
353.4
  0
VERTEX
  8
MMIC_Label
  10
1358.2
  20
353.4
  0
VERTEX
  8
MMIC_Label
  10
1358.2
  20
334.1
  0
VERTEX
  8
MMIC_Label
  10
1366.7
  20
325.6
  0
VERTEX
  8
MMIC_Label
  10
1375.2
  20
334.1
  0
VERTEX
  8
MMIC_Label
  10
1375.2
  20
353.4
  0
VERTEX
  8
MMIC_Label
  10
1380.2
  20
353.4
  0
VERTEX
  8
MMIC_Label
  10
1380.2
  20
331.9
  0
VERTEX
  8
MMIC_Label
  10
1366.7
  20
318.4
  0
SEQEND
  0
POLYLINE
  8
MMIC_Label
  70
1
  66
1
  0
VERTEX
  8
MMIC_Label
  10
2021.2
  20
288.9
  0
VERTEX
  8
MMIC_Label
  10
2021.2
  20
310.4
  0
VERTEX
  8
MMIC_Label
  10
2026.2
  20
310.4
  0
VERTEX
  8
MMIC_Label
  10
2026.2
  20
291.1
  0
VERTEX
  8
MMIC_Label
  10
2034.7
  20
282.6
  0
VERTEX
  8
MMIC_Label
  10
2043.2
  20
291.1
  0
VERTEX
  8
MMIC_Label
  10
2043.2
  20
310.4
  0
VERTEX
  8
MMIC_Label
  10
2048.2
  20
310.4
  0
VERTEX
  8
MMIC_Label
  10
2048.2
  20
288.9
  0
VERTEX
  8
MMIC_Label
  10
2034.7
  20
275.4
  0
SEQEND
  0
POLYLINE
  8
MMIC_Label
  70
1
  66
1
  0
VERTEX
  8
MMIC_Label
  10
2018.2
  20
1699.9
  0
VERTEX
  8
MMIC_Label
  10
2018.2
  20
1721.4
  0
VERTEX
  8
MMIC_Label
  10
2023.2
  20
1721.4
  0
VERTEX
  8
MMIC_Label
  10
2023.2
  20
1702.1
  0
VERTEX
  8
MMIC_Label
  10
2031.7
  20
1693.6
  0
VERTEX
  8
MMIC_Label
  10
2040.2
  20
1702.1
  0
VERTEX
  8
MMIC_Label
  10
2040.2
  20
1721.4
  0
VERTEX
  8
MMIC_Label
  10
2045.2
  20
1721.4
  0
VERTEX
  8
MMIC_Label
  10
2045.2
  20
1699.9
  0
VERTEX
  8
MMIC_Label
  10
2031.7
  20
1686.4
  0
SEQEND
  0
POLYLINE
  8
MMIC_Label
  70
1
  66
1
  0
VERTEX
  8
MMIC_Label
  10
468.233
  20
1632.933
  0
VERTEX
  8
MMIC_Label
  10
468.233
  20
1654.433
  0
VERTEX
  8
MMIC_Label
  10
473.233
  20
1654.433
  0
VERTEX
  8
MMIC_Label
  10
473.233
  20
1635.133
  0
VERTEX
  8
MMIC_Label
  10
481.733
  20
1626.633
  0
VERTEX
  8
MMIC_Label
  10
490.233
  20
1635.133
  0
VERTEX
  8
MMIC_Label
  10
490.233
  20
1654.433
  0
VERTEX
  8
MMIC_Label
  10
495.233
  20
1654.433
  0
VERTEX
  8
MMIC_Label
  10
495.233
  20
1632.933
  0
VERTEX
  8
MMIC_Label
  10
481.733
  20
1619.433
  0
SEQEND
  0
POLYLINE
  8
MMIC_Label
  70
1
  66
1
  0
VERTEX
  8
MMIC_Label
  10
525.233
  20
1648.033
  0
VERTEX
  8
MMIC_Label
  10
518.833
  20
1654.433
  0
VERTEX
  8
MMIC_Label
  10
500.233
  20
1654.433
  0
VERTEX
  8
MMIC_Label
  10
500.233
  20
1619.433
  0
VERTEX
  8
MMIC_Label
  10
505.233
  20
1619.433
  0
VERTEX
  8
MMIC_Label
  10
505.233
  20
1649.433
  0
VERTEX
  8
MMIC_Label
  10
516.633
  20
1649.433
  0
VERTEX
  8
MMIC_Label
  10
520.233
  20
1645.833
  0
VERTEX
  8
MMIC_Label
  10
520.233
  20
1625.533
  0
VERTEX
  8
MMIC_Label
  10
519.133
  20
1624.433
  0
VERTEX
  8
MMIC_Label
  10
510.233
  20
1624.433
  0
VERTEX
  8
MMIC_Label
  10
510.233
  20
1619.433
  0
VERTEX
  8
MMIC_Label
  10
521.333
  20
1619.433
  0
VERTEX
  8
MMIC_Label
  10
525.233
  20
1623.333
  0
SEQEND
  0
POLYLINE
  8
MMIC_Label
  70
1
  66
1
  0
VERTEX
  8
MMIC_Label
  10
1979.2
  20
304
  0
VERTEX
  8
MMIC_Label
  10
1972.8
  20
310.4
  0
VERTEX
  8
MMIC_Label
  10
1954.2
  20
310.4
  0
VERTEX
  8
MMIC_Label
  10
1954.2
  20
275.4
  0
VERTEX
  8
MMIC_Label
  10
1959.2
  20
275.4
  0
VERTEX
  8
MMIC_Label
  10
1959.2
  20
305.4
  0
VERTEX
  8
MMIC_Label
  10
1970.6
  20
305.4
  0
VERTEX
  8
MMIC_Label
  10
1974.2
  20
301.8
  0
VERTEX
  8
MMIC_Label
  10
1974.2
  20
281.5
  0
VERTEX
  8
MMIC_Label
  10
1973.1
  20
280.4
  0
VERTEX
  8
MMIC_Label
  10
1964.2
  20
280.4
  0
VERTEX
  8
MMIC_Label
  10
1964.2
  20
275.4
  0
VERTEX
  8
MMIC_Label
  10
1975.3
  20
275.4
  0
VERTEX
  8
MMIC_Label
  10
1979.2
  20
279.3
  0
SEQEND
  0
POLYLINE
  8
MMIC_Label
  70
1
  66
1
  0
VERTEX
  8
MMIC_Label
  10
580.233
  20
1624.433
  0
VERTEX
  8
MMIC_Label
  10
569.233
  20
1624.433
  0
VERTEX
  8
MMIC_Label
  10
569.233
  20
1629.833
  0
VERTEX
  8
MMIC_Label
  10
580.233
  20
1640.833
  0
VERTEX
  8
MMIC_Label
  10
580.233
  20
1648.033
  0
VERTEX
  8
MMIC_Label
  10
573.833
  20
1654.433
  0
VERTEX
  8
MMIC_Label
  10
561.733
  20
1654.433
  0
VERTEX
  8
MMIC_Label
  10
555.233
  20
1647.933
  0
VERTEX
  8
MMIC_Label
  10
555.233
  20
1641.933
  0
VERTEX
  8
MMIC_Label
  10
560.233
  20
1641.933
  0
VERTEX
  8
MMIC_Label
  10
560.233
  20
1645.833
  0
VERTEX
  8
MMIC_Label
  10
563.833
  20
1649.433
  0
VERTEX
  8
MMIC_Label
  10
571.733
  20
1649.433
  0
VERTEX
  8
MMIC_Label
  10
575.233
  20
1645.933
  0
VERTEX
  8
MMIC_Label
  10
575.233
  20
1642.933
  0
VERTEX
  8
MMIC_Label
  10
557.233
  20
1624.933
  0
VERTEX
  8
MMIC_Label
  10
557.233
  20
1619.433
  0
VERTEX
  8
MMIC_Label
  10
580.233
  20
1619.433
  0
SEQEND
  0
POLYLINE
  8
MMIC_Label
  70
1
  66
1
  0
VERTEX
  8
MMIC_Label
  10
1294.2
  20
344
  0
VERTEX
  8
MMIC_Label
  10
1287.8
  20
350.4
  0
VERTEX
  8
MMIC_Label
  10
1269.2
  20
350.4
  0
VERTEX
  8
MMIC_Label
  10
1269.2
  20
315.4
  0
VERTEX
  8
MMIC_Label
  10
1274.2
  20
315.4
  0
VERTEX
  8
MMIC_Label
  10
1274.2
  20
345.4
  0
VERTEX
  8
MMIC_Label
  10
1285.6
  20
345.4
  0
VERTEX
  8
MMIC_Label
  10
1289.2
  20
341.8
  0
VERTEX
  8
MMIC_Label
  10
1289.2
  20
321.5
  0
VERTEX
  8
MMIC_Label
  10
1288.1
  20
320.4
  0
VERTEX
  8
MMIC_Label
  10
1279.2
  20
320.4
  0
VERTEX
  8
MMIC_Label
  10
1279.2
  20
315.4
  0
VERTEX
  8
MMIC_Label
  10
1290.3
  20
315.4
  0
VERTEX
  8
MMIC_Label
  10
1294.2
  20
319.3
  0
SEQEND
  0
POLYLINE
  8
MMIC_Label
  70
1
  66
1
  0
VERTEX
  8
MMIC_Label
  10
322.2
  20
185
  0
VERTEX
  8
MMIC_Label
  10
307.2
  20
185
  0
VERTEX
  8
MMIC_Label
  10
307.2
  20
180
  0
VERTEX
  8
MMIC_Label
  10
317.2
  20
180
  0
VERTEX
  8
MMIC_Label
  10
317.2
  20
175
  0
VERTEX
  8
MMIC_Label
  10
313.6
  20
171.4
  0
VERTEX
  8
MMIC_Label
  10
305.8
  20
171.4
  0
VERTEX
  8
MMIC_Label
  10
302.2
  20
175
  0
VERTEX
  8
MMIC_Label
  10
302.2
  20
192.8
  0
VERTEX
  8
MMIC_Label
  10
305.8
  20
196.4
  0
VERTEX
  8
MMIC_Label
  10
313.7
  20
196.4
  0
VERTEX
  8
MMIC_Label
  10
318
  20
192.1
  0
VERTEX
  8
MMIC_Label
  10
321.6
  20
195.7
  0
VERTEX
  8
MMIC_Label
  10
315.9
  20
201.4
  0
VERTEX
  8
MMIC_Label
  10
303.7
  20
201.4
  0
VERTEX
  8
MMIC_Label
  10
297.2
  20
194.9
  0
VERTEX
  8
MMIC_Label
  10
297.2
  20
172.9
  0
VERTEX
  8
MMIC_Label
  10
303.7
  20
166.4
  0
VERTEX
  8
MMIC_Label
  10
315.7
  20
166.4
  0
VERTEX
  8
MMIC_Label
  10
322.2
  20
172.9
  0
SEQEND
  0
POLYLINE
  8
MMIC_Label
  70
1
  66
1
  0
VERTEX
  8
MMIC_Label
  10
386.2
  20
195
  0
VERTEX
  8
MMIC_Label
  10
379.8
  20
201.4
  0
VERTEX
  8
MMIC_Label
  10
361.2
  20
201.4
  0
VERTEX
  8
MMIC_Label
  10
361.2
  20
166.4
  0
VERTEX
  8
MMIC_Label
  10
366.2
  20
166.4
  0
VERTEX
  8
MMIC_Label
  10
366.2
  20
196.4
  0
VERTEX
  8
MMIC_Label
  10
377.6
  20
196.4
  0
VERTEX
  8
MMIC_Label
  10
381.2
  20
192.8
  0
VERTEX
  8
MMIC_Label
  10
381.2
  20
172.5
  0
VERTEX
  8
MMIC_Label
  10
380.1
  20
171.4
  0
VERTEX
  8
MMIC_Label
  10
371.2
  20
171.4
  0
VERTEX
  8
MMIC_Label
  10
371.2
  20
166.4
  0
VERTEX
  8
MMIC_Label
  10
382.3
  20
166.4
  0
VERTEX
  8
MMIC_Label
  10
386.2
  20
170.3
  0
SEQEND
  0
POLYLINE
  8
MMIC_Label
  70
1
  66
1
  0
VERTEX
  8
MMIC_Label
  10
421.2
  20
1733
  0
VERTEX
  8
MMIC_Label
  10
414.8
  20
1739.4
  0
VERTEX
  8
MMIC_Label
  10
396.2
  20
1739.4
  0
VERTEX
  8
MMIC_Label
  10
396.2
  20
1704.4
  0
VERTEX
  8
MMIC_Label
  10
401.2
  20
1704.4
  0
VERTEX
  8
MMIC_Label
  10
401.2
  20
1734.4
  0
VERTEX
  8
MMIC_Label
  10
412.6
  20
1734.4
  0
VERTEX
  8
MMIC_Label
  10
416.2
  20
1730.8
  0
VERTEX
  8
MMIC_Label
  10
416.2
  20
1710.5
  0
VERTEX
  8
MMIC_Label
  10
415.1
  20
1709.4
  0
VERTEX
  8
MMIC_Label
  10
406.2
  20
1709.4
  0
VERTEX
  8
MMIC_Label
  10
406.2
  20
1704.4
  0
VERTEX
  8
MMIC_Label
  10
417.3
  20
1704.4
  0
VERTEX
  8
MMIC_Label
  10
421.2
  20
1708.3
  0
SEQEND
  0
POLYLINE
  8
MMIC_Label
  70
1
  66
1
  0
VERTEX
  8
MMIC_Label
  10
2108.2
  20
289
  0
VERTEX
  8
MMIC_Label
  10
2104.3
  20
292.9
  0
VERTEX
  8
MMIC_Label
  10
2108.2
  20
296.8
  0
VERTEX
  8
MMIC_Label
  10
2108.2
  20
304
  0
VERTEX
  8
MMIC_Label
  10
2101.8
  20
310.4
  0
VERTEX
  8
MMIC_Label
  10
2089.7
  20
310.4
  0
VERTEX
  8
MMIC_Label
  10
2083.2
  20
303.9
  0
VERTEX
  8
MMIC_Label
  10
2083.2
  20
297.9
  0
VERTEX
  8
MMIC_Label
  10
2088.2
  20
297.9
  0
VERTEX
  8
MMIC_Label
  10
2088.2
  20
301.8
  0
VERTEX
  8
MMIC_Label
  10
2091.8
  20
305.4
  0
VERTEX
  8
MMIC_Label
  10
2099.7
  20
305.4
  0
VERTEX
  8
MMIC_Label
  10
2103.2
  20
301.9
  0
VERTEX
  8
MMIC_Label
  10
2103.2
  20
298.9
  0
VERTEX
  8
MMIC_Label
  10
2099.7
  20
295.4
  0
VERTEX
  8
MMIC_Label
  10
2093.2
  20
295.4
  0
VERTEX
  8
MMIC_Label
  10
2093.2
  20
290.4
  0
VERTEX
  8
MMIC_Label
  10
2099.7
  20
290.4
  0
VERTEX
  8
MMIC_Label
  10
2103.2
  20
286.9
  0
VERTEX
  8
MMIC_Label
  10
2103.2
  20
283.9
  0
VERTEX
  8
MMIC_Label
  10
2099.7
  20
280.4
  0
VERTEX
  8
MMIC_Label
  10
2091.8
  20
280.4
  0
VERTEX
  8
MMIC_Label
  10
2088.2
  20
284
  0
VERTEX
  8
MMIC_Label
  10
2088.2
  20
287.9
  0
VERTEX
  8
MMIC_Label
  10
2083.2
  20
287.9
  0
VERTEX
  8
MMIC_Label
  10
2083.2
  20
281.9
  0
VERTEX
  8
MMIC_Label
  10
2089.7
  20
275.4
  0
VERTEX
  8
MMIC_Label
  10
2101.8
  20
275.4
  0
VERTEX
  8
MMIC_Label
  10
2108.2
  20
281.8
  0
SEQEND
  0
POLYLINE
  8
MMIC_Label
  70
1
  66
1
  0
VERTEX
  8
MMIC_Label
  10
386.2
  20
195
  0
VERTEX
  8
MMIC_Label
  10
379.8
  20
201.4
  0
VERTEX
  8
MMIC_Label
  10
361.2
  20
201.4
  0
VERTEX
  8
MMIC_Label
  10
361.2
  20
166.4
  0
VERTEX
  8
MMIC_Label
  10
366.2
  20
166.4
  0
VERTEX
  8
MMIC_Label
  10
366.2
  20
196.4
  0
VERTEX
  8
MMIC_Label
  10
377.6
  20
196.4
  0
VERTEX
  8
MMIC_Label
  10
381.2
  20
192.8
  0
VERTEX
  8
MMIC_Label
  10
381.2
  20
172.5
  0
VERTEX
  8
MMIC_Label
  10
380.1
  20
171.4
  0
VERTEX
  8
MMIC_Label
  10
371.2
  20
171.4
  0
VERTEX
  8
MMIC_Label
  10
371.2
  20
166.4
  0
VERTEX
  8
MMIC_Label
  10
382.3
  20
166.4
  0
VERTEX
  8
MMIC_Label
  10
386.2
  20
170.3
  0
SEQEND
  0
POLYLINE
  8
MMIC_Label
  70
1
  66
1
  0
VERTEX
  8
MMIC_Label
  10
2075.2
  20
1715
  0
VERTEX
  8
MMIC_Label
  10
2068.8
  20
1721.4
  0
VERTEX
  8
MMIC_Label
  10
2050.2
  20
1721.4
  0
VERTEX
  8
MMIC_Label
  10
2050.2
  20
1686.4
  0
VERTEX
  8
MMIC_Label
  10
2055.2
  20
1686.4
  0
VERTEX
  8
MMIC_Label
  10
2055.2
  20
1716.4
  0
VERTEX
  8
MMIC_Label
  10
2066.6
  20
1716.4
  0
VERTEX
  8
MMIC_Label
  10
2070.2
  20
1712.8
  0
VERTEX
  8
MMIC_Label
  10
2070.2
  20
1692.5
  0
VERTEX
  8
MMIC_Label
  10
2069.1
  20
1691.4
  0
VERTEX
  8
MMIC_Label
  10
2060.2
  20
1691.4
  0
VERTEX
  8
MMIC_Label
  10
2060.2
  20
1686.4
  0
VERTEX
  8
MMIC_Label
  10
2071.3
  20
1686.4
  0
VERTEX
  8
MMIC_Label
  10
2075.2
  20
1690.3
  0
SEQEND
  0
POLYLINE
  8
MMIC_Label
  70
1
  66
1
  0
VERTEX
  8
MMIC_Label
  10
1979.2
  20
304
  0
VERTEX
  8
MMIC_Label
  10
1972.8
  20
310.4
  0
VERTEX
  8
MMIC_Label
  10
1954.2
  20
310.4
  0
VERTEX
  8
MMIC_Label
  10
1954.2
  20
275.4
  0
VERTEX
  8
MMIC_Label
  10
1959.2
  20
275.4
  0
VERTEX
  8
MMIC_Label
  10
1959.2
  20
305.4
  0
VERTEX
  8
MMIC_Label
  10
1970.6
  20
305.4
  0
VERTEX
  8
MMIC_Label
  10
1974.2
  20
301.8
  0
VERTEX
  8
MMIC_Label
  10
1974.2
  20
281.5
  0
VERTEX
  8
MMIC_Label
  10
1973.1
  20
280.4
  0
VERTEX
  8
MMIC_Label
  10
1964.2
  20
280.4
  0
VERTEX
  8
MMIC_Label
  10
1964.2
  20
275.4
  0
VERTEX
  8
MMIC_Label
  10
1975.3
  20
275.4
  0
VERTEX
  8
MMIC_Label
  10
1979.2
  20
279.3
  0
SEQEND
  0
POLYLINE
  8
MMIC_Label
  70
1
  66
1
  0
VERTEX
  8
MMIC_Label
  10
525.233
  20
1648.033
  0
VERTEX
  8
MMIC_Label
  10
518.833
  20
1654.433
  0
VERTEX
  8
MMIC_Label
  10
500.233
  20
1654.433
  0
VERTEX
  8
MMIC_Label
  10
500.233
  20
1619.433
  0
VERTEX
  8
MMIC_Label
  10
505.233
  20
1619.433
  0
VERTEX
  8
MMIC_Label
  10
505.233
  20
1649.433
  0
VERTEX
  8
MMIC_Label
  10
516.633
  20
1649.433
  0
VERTEX
  8
MMIC_Label
  10
520.233
  20
1645.833
  0
VERTEX
  8
MMIC_Label
  10
520.233
  20
1625.533
  0
VERTEX
  8
MMIC_Label
  10
519.133
  20
1624.433
  0
VERTEX
  8
MMIC_Label
  10
510.233
  20
1624.433
  0
VERTEX
  8
MMIC_Label
  10
510.233
  20
1619.433
  0
VERTEX
  8
MMIC_Label
  10
521.333
  20
1619.433
  0
VERTEX
  8
MMIC_Label
  10
525.233
  20
1623.333
  0
SEQEND
  0
POLYLINE
  8
MMIC_Label
  70
1
  66
1
  0
VERTEX
  8
MMIC_Label
  10
1440.2
  20
332
  0
VERTEX
  8
MMIC_Label
  10
1436.3
  20
335.9
  0
VERTEX
  8
MMIC_Label
  10
1440.2
  20
339.8
  0
VERTEX
  8
MMIC_Label
  10
1440.2
  20
347
  0
VERTEX
  8
MMIC_Label
  10
1433.8
  20
353.4
  0
VERTEX
  8
MMIC_Label
  10
1421.7
  20
353.4
  0
VERTEX
  8
MMIC_Label
  10
1415.2
  20
346.9
  0
VERTEX
  8
MMIC_Label
  10
1415.2
  20
340.9
  0
VERTEX
  8
MMIC_Label
  10
1420.2
  20
340.9
  0
VERTEX
  8
MMIC_Label
  10
1420.2
  20
344.8
  0
VERTEX
  8
MMIC_Label
  10
1423.8
  20
348.4
  0
VERTEX
  8
MMIC_Label
  10
1431.7
  20
348.4
  0
VERTEX
  8
MMIC_Label
  10
1435.2
  20
344.9
  0
VERTEX
  8
MMIC_Label
  10
1435.2
  20
341.9
  0
VERTEX
  8
MMIC_Label
  10
1431.7
  20
338.4
  0
VERTEX
  8
MMIC_Label
  10
1425.2
  20
338.4
  0
VERTEX
  8
MMIC_Label
  10
1425.2
  20
333.4
  0
VERTEX
  8
MMIC_Label
  10
1431.7
  20
333.4
  0
VERTEX
  8
MMIC_Label
  10
1435.2
  20
329.9
  0
VERTEX
  8
MMIC_Label
  10
1435.2
  20
326.9
  0
VERTEX
  8
MMIC_Label
  10
1431.7
  20
323.4
  0
VERTEX
  8
MMIC_Label
  10
1423.8
  20
323.4
  0
VERTEX
  8
MMIC_Label
  10
1420.2
  20
327
  0
VERTEX
  8
MMIC_Label
  10
1420.2
  20
330.9
  0
VERTEX
  8
MMIC_Label
  10
1415.2
  20
330.9
  0
VERTEX
  8
MMIC_Label
  10
1415.2
  20
324.9
  0
VERTEX
  8
MMIC_Label
  10
1421.7
  20
318.4
  0
VERTEX
  8
MMIC_Label
  10
1433.8
  20
318.4
  0
VERTEX
  8
MMIC_Label
  10
1440.2
  20
324.8
  0
SEQEND
  0
POLYLINE
  8
MMIC_Label
  70
1
  66
1
  0
VERTEX
  8
MMIC_Label
  10
580.233
  20
1624.433
  0
VERTEX
  8
MMIC_Label
  10
569.233
  20
1624.433
  0
VERTEX
  8
MMIC_Label
  10
569.233
  20
1629.833
  0
VERTEX
  8
MMIC_Label
  10
580.233
  20
1640.833
  0
VERTEX
  8
MMIC_Label
  10
580.233
  20
1648.033
  0
VERTEX
  8
MMIC_Label
  10
573.833
  20
1654.433
  0
VERTEX
  8
MMIC_Label
  10
561.733
  20
1654.433
  0
VERTEX
  8
MMIC_Label
  10
555.233
  20
1647.933
  0
VERTEX
  8
MMIC_Label
  10
555.233
  20
1641.933
  0
VERTEX
  8
MMIC_Label
  10
560.233
  20
1641.933
  0
VERTEX
  8
MMIC_Label
  10
560.233
  20
1645.833
  0
VERTEX
  8
MMIC_Label
  10
563.833
  20
1649.433
  0
VERTEX
  8
MMIC_Label
  10
571.733
  20
1649.433
  0
VERTEX
  8
MMIC_Label
  10
575.233
  20
1645.933
  0
VERTEX
  8
MMIC_Label
  10
575.233
  20
1642.933
  0
VERTEX
  8
MMIC_Label
  10
557.233
  20
1624.933
  0
VERTEX
  8
MMIC_Label
  10
557.233
  20
1619.433
  0
VERTEX
  8
MMIC_Label
  10
580.233
  20
1619.433
  0
SEQEND
  0
POLYLINE
  8
MMIC_Label
  70
1
  66
1
  0
VERTEX
  8
MMIC_Label
  10
2108.2
  20
289
  0
VERTEX
  8
MMIC_Label
  10
2104.3
  20
292.9
  0
VERTEX
  8
MMIC_Label
  10
2108.2
  20
296.8
  0
VERTEX
  8
MMIC_Label
  10
2108.2
  20
304
  0
VERTEX
  8
MMIC_Label
  10
2101.8
  20
310.4
  0
VERTEX
  8
MMIC_Label
  10
2089.7
  20
310.4
  0
VERTEX
  8
MMIC_Label
  10
2083.2
  20
303.9
  0
VERTEX
  8
MMIC_Label
  10
2083.2
  20
297.9
  0
VERTEX
  8
MMIC_Label
  10
2088.2
  20
297.9
  0
VERTEX
  8
MMIC_Label
  10
2088.2
  20
301.8
  0
VERTEX
  8
MMIC_Label
  10
2091.8
  20
305.4
  0
VERTEX
  8
MMIC_Label
  10
2099.7
  20
305.4
  0
VERTEX
  8
MMIC_Label
  10
2103.2
  20
301.9
  0
VERTEX
  8
MMIC_Label
  10
2103.2
  20
298.9
  0
VERTEX
  8
MMIC_Label
  10
2099.7
  20
295.4
  0
VERTEX
  8
MMIC_Label
  10
2093.2
  20
295.4
  0
VERTEX
  8
MMIC_Label
  10
2093.2
  20
290.4
  0
VERTEX
  8
MMIC_Label
  10
2099.7
  20
290.4
  0
VERTEX
  8
MMIC_Label
  10
2103.2
  20
286.9
  0
VERTEX
  8
MMIC_Label
  10
2103.2
  20
283.9
  0
VERTEX
  8
MMIC_Label
  10
2099.7
  20
280.4
  0
VERTEX
  8
MMIC_Label
  10
2091.8
  20
280.4
  0
VERTEX
  8
MMIC_Label
  10
2088.2
  20
284
  0
VERTEX
  8
MMIC_Label
  10
2088.2
  20
287.9
  0
VERTEX
  8
MMIC_Label
  10
2083.2
  20
287.9
  0
VERTEX
  8
MMIC_Label
  10
2083.2
  20
281.9
  0
VERTEX
  8
MMIC_Label
  10
2089.7
  20
275.4
  0
VERTEX
  8
MMIC_Label
  10
2101.8
  20
275.4
  0
VERTEX
  8
MMIC_Label
  10
2108.2
  20
281.8
  0
SEQEND
  0
POLYLINE
  8
MMIC_Label
  70
1
  66
1
  0
VERTEX
  8
MMIC_Label
  10
192.6
  20
1295.322
  0
VERTEX
  8
MMIC_Label
  10
182.6
  20
1295.322
  0
VERTEX
  8
MMIC_Label
  10
182.6
  20
1320.322
  0
VERTEX
  8
MMIC_Label
  10
192.6
  20
1320.322
  0
VERTEX
  8
MMIC_Label
  10
192.6
  20
1325.322
  0
VERTEX
  8
MMIC_Label
  10
167.6
  20
1325.322
  0
VERTEX
  8
MMIC_Label
  10
167.6
  20
1320.322
  0
VERTEX
  8
MMIC_Label
  10
177.6
  20
1320.322
  0
VERTEX
  8
MMIC_Label
  10
177.6
  20
1295.322
  0
VERTEX
  8
MMIC_Label
  10
167.6
  20
1295.322
  0
VERTEX
  8
MMIC_Label
  10
167.6
  20
1290.322
  0
VERTEX
  8
MMIC_Label
  10
192.6
  20
1290.322
  0
SEQEND
  0
POLYLINE
  8
MMIC_Label
  70
1
  66
1
  0
VERTEX
  8
MMIC_Label
  10
322.2
  20
185
  0
VERTEX
  8
MMIC_Label
  10
307.2
  20
185
  0
VERTEX
  8
MMIC_Label
  10
307.2
  20
180
  0
VERTEX
  8
MMIC_Label
  10
317.2
  20
180
  0
VERTEX
  8
MMIC_Label
  10
317.2
  20
175
  0
VERTEX
  8
MMIC_Label
  10
313.6
  20
171.4
  0
VERTEX
  8
MMIC_Label
  10
305.8
  20
171.4
  0
VERTEX
  8
MMIC_Label
  10
302.2
  20
175
  0
VERTEX
  8
MMIC_Label
  10
302.2
  20
192.8
  0
VERTEX
  8
MMIC_Label
  10
305.8
  20
196.4
  0
VERTEX
  8
MMIC_Label
  10
313.7
  20
196.4
  0
VERTEX
  8
MMIC_Label
  10
318
  20
192.1
  0
VERTEX
  8
MMIC_Label
  10
321.6
  20
195.7
  0
VERTEX
  8
MMIC_Label
  10
315.9
  20
201.4
  0
VERTEX
  8
MMIC_Label
  10
303.7
  20
201.4
  0
VERTEX
  8
MMIC_Label
  10
297.2
  20
194.9
  0
VERTEX
  8
MMIC_Label
  10
297.2
  20
172.9
  0
VERTEX
  8
MMIC_Label
  10
303.7
  20
166.4
  0
VERTEX
  8
MMIC_Label
  10
315.7
  20
166.4
  0
VERTEX
  8
MMIC_Label
  10
322.2
  20
172.9
  0
SEQEND
  0
POLYLINE
  8
MMIC_Label
  70
1
  66
1
  0
VERTEX
  8
MMIC_Label
  10
192.6
  20
1295.322
  0
VERTEX
  8
MMIC_Label
  10
182.6
  20
1295.322
  0
VERTEX
  8
MMIC_Label
  10
182.6
  20
1320.322
  0
VERTEX
  8
MMIC_Label
  10
192.6
  20
1320.322
  0
VERTEX
  8
MMIC_Label
  10
192.6
  20
1325.322
  0
VERTEX
  8
MMIC_Label
  10
167.6
  20
1325.322
  0
VERTEX
  8
MMIC_Label
  10
167.6
  20
1320.322
  0
VERTEX
  8
MMIC_Label
  10
177.6
  20
1320.322
  0
VERTEX
  8
MMIC_Label
  10
177.6
  20
1295.322
  0
VERTEX
  8
MMIC_Label
  10
167.6
  20
1295.322
  0
VERTEX
  8
MMIC_Label
  10
167.6
  20
1290.322
  0
VERTEX
  8
MMIC_Label
  10
192.6
  20
1290.322
  0
SEQEND
  0
POLYLINE
  8
MMIC_Label
  70
1
  66
1
  0
VERTEX
  8
MMIC_Label
  10
2078.2
  20
304
  0
VERTEX
  8
MMIC_Label
  10
2071.8
  20
310.4
  0
VERTEX
  8
MMIC_Label
  10
2053.2
  20
310.4
  0
VERTEX
  8
MMIC_Label
  10
2053.2
  20
275.4
  0
VERTEX
  8
MMIC_Label
  10
2058.2
  20
275.4
  0
VERTEX
  8
MMIC_Label
  10
2058.2
  20
305.4
  0
VERTEX
  8
MMIC_Label
  10
2069.6
  20
305.4
  0
VERTEX
  8
MMIC_Label
  10
2073.2
  20
301.8
  0
VERTEX
  8
MMIC_Label
  10
2073.2
  20
281.5
  0
VERTEX
  8
MMIC_Label
  10
2072.1
  20
280.4
  0
VERTEX
  8
MMIC_Label
  10
2063.2
  20
280.4
  0
VERTEX
  8
MMIC_Label
  10
2063.2
  20
275.4
  0
VERTEX
  8
MMIC_Label
  10
2074.3
  20
275.4
  0
VERTEX
  8
MMIC_Label
  10
2078.2
  20
279.3
  0
SEQEND
  0
POLYLINE
  8
MMIC_Label
  70
1
  66
1
  0
VERTEX
  8
MMIC_Label
  10
1294.2
  20
344
  0
VERTEX
  8
MMIC_Label
  10
1287.8
  20
350.4
  0
VERTEX
  8
MMIC_Label
  10
1269.2
  20
350.4
  0
VERTEX
  8
MMIC_Label
  10
1269.2
  20
315.4
  0
VERTEX
  8
MMIC_Label
  10
1274.2
  20
315.4
  0
VERTEX
  8
MMIC_Label
  10
1274.2
  20
345.4
  0
VERTEX
  8
MMIC_Label
  10
1285.6
  20
345.4
  0
VERTEX
  8
MMIC_Label
  10
1289.2
  20
341.8
  0
VERTEX
  8
MMIC_Label
  10
1289.2
  20
321.5
  0
VERTEX
  8
MMIC_Label
  10
1288.1
  20
320.4
  0
VERTEX
  8
MMIC_Label
  10
1279.2
  20
320.4
  0
VERTEX
  8
MMIC_Label
  10
1279.2
  20
315.4
  0
VERTEX
  8
MMIC_Label
  10
1290.3
  20
315.4
  0
VERTEX
  8
MMIC_Label
  10
1294.2
  20
319.3
  0
SEQEND
  0
POLYLINE
  8
MMIC_Label
  70
1
  66
1
  0
VERTEX
  8
MMIC_Label
  10
357.2
  20
1723
  0
VERTEX
  8
MMIC_Label
  10
342.2
  20
1723
  0
VERTEX
  8
MMIC_Label
  10
342.2
  20
1718
  0
VERTEX
  8
MMIC_Label
  10
352.2
  20
1718
  0
VERTEX
  8
MMIC_Label
  10
352.2
  20
1713
  0
VERTEX
  8
MMIC_Label
  10
348.6
  20
1709.4
  0
VERTEX
  8
MMIC_Label
  10
340.8
  20
1709.4
  0
VERTEX
  8
MMIC_Label
  10
337.2
  20
1713
  0
VERTEX
  8
MMIC_Label
  10
337.2
  20
1730.8
  0
VERTEX
  8
MMIC_Label
  10
340.8
  20
1734.4
  0
VERTEX
  8
MMIC_Label
  10
348.7
  20
1734.4
  0
VERTEX
  8
MMIC_Label
  10
353
  20
1730.1
  0
VERTEX
  8
MMIC_Label
  10
356.6
  20
1733.7
  0
VERTEX
  8
MMIC_Label
  10
350.9
  20
1739.4
  0
VERTEX
  8
MMIC_Label
  10
338.7
  20
1739.4
  0
VERTEX
  8
MMIC_Label
  10
332.2
  20
1732.9
  0
VERTEX
  8
MMIC_Label
  10
332.2
  20
1710.9
  0
VERTEX
  8
MMIC_Label
  10
338.7
  20
1704.4
  0
VERTEX
  8
MMIC_Label
  10
350.7
  20
1704.4
  0
VERTEX
  8
MMIC_Label
  10
357.2
  20
1710.9
  0
SEQEND
  0
POLYLINE
  8
MMIC_Label
  70
1
  66
1
  0
VERTEX
  8
MMIC_Label
  10
1910.2
  20
1704
  0
VERTEX
  8
MMIC_Label
  10
1895.2
  20
1704
  0
VERTEX
  8
MMIC_Label
  10
1895.2
  20
1699
  0
VERTEX
  8
MMIC_Label
  10
1905.2
  20
1699
  0
VERTEX
  8
MMIC_Label
  10
1905.2
  20
1694
  0
VERTEX
  8
MMIC_Label
  10
1901.6
  20
1690.4
  0
VERTEX
  8
MMIC_Label
  10
1893.8
  20
1690.4
  0
VERTEX
  8
MMIC_Label
  10
1890.2
  20
1694
  0
VERTEX
  8
MMIC_Label
  10
1890.2
  20
1711.8
  0
VERTEX
  8
MMIC_Label
  10
1893.8
  20
1715.4
  0
VERTEX
  8
MMIC_Label
  10
1901.7
  20
1715.4
  0
VERTEX
  8
MMIC_Label
  10
1906
  20
1711.1
  0
VERTEX
  8
MMIC_Label
  10
1909.6
  20
1714.7
  0
VERTEX
  8
MMIC_Label
  10
1903.9
  20
1720.4
  0
VERTEX
  8
MMIC_Label
  10
1891.7
  20
1720.4
  0
VERTEX
  8
MMIC_Label
  10
1885.2
  20
1713.9
  0
VERTEX
  8
MMIC_Label
  10
1885.2
  20
1691.9
  0
VERTEX
  8
MMIC_Label
  10
1891.7
  20
1685.4
  0
VERTEX
  8
MMIC_Label
  10
1903.7
  20
1685.4
  0
VERTEX
  8
MMIC_Label
  10
1910.2
  20
1691.9
  0
SEQEND
  0
POLYLINE
  8
MMIC_Label
  70
1
  66
1
  0
VERTEX
  8
MMIC_Label
  10
1974.2
  20
1714
  0
VERTEX
  8
MMIC_Label
  10
1967.8
  20
1720.4
  0
VERTEX
  8
MMIC_Label
  10
1949.2
  20
1720.4
  0
VERTEX
  8
MMIC_Label
  10
1949.2
  20
1685.4
  0
VERTEX
  8
MMIC_Label
  10
1954.2
  20
1685.4
  0
VERTEX
  8
MMIC_Label
  10
1954.2
  20
1715.4
  0
VERTEX
  8
MMIC_Label
  10
1965.6
  20
1715.4
  0
VERTEX
  8
MMIC_Label
  10
1969.2
  20
1711.8
  0
VERTEX
  8
MMIC_Label
  10
1969.2
  20
1691.5
  0
VERTEX
  8
MMIC_Label
  10
1968.1
  20
1690.4
  0
VERTEX
  8
MMIC_Label
  10
1959.2
  20
1690.4
  0
VERTEX
  8
MMIC_Label
  10
1959.2
  20
1685.4
  0
VERTEX
  8
MMIC_Label
  10
1970.3
  20
1685.4
  0
VERTEX
  8
MMIC_Label
  10
1974.2
  20
1689.3
  0
SEQEND
  0
POLYLINE
  8
MMIC_Label
  70
1
  66
1
  0
VERTEX
  8
MMIC_Label
  10
357.2
  20
1723
  0
VERTEX
  8
MMIC_Label
  10
342.2
  20
1723
  0
VERTEX
  8
MMIC_Label
  10
342.2
  20
1718
  0
VERTEX
  8
MMIC_Label
  10
352.2
  20
1718
  0
VERTEX
  8
MMIC_Label
  10
352.2
  20
1713
  0
VERTEX
  8
MMIC_Label
  10
348.6
  20
1709.4
  0
VERTEX
  8
MMIC_Label
  10
340.8
  20
1709.4
  0
VERTEX
  8
MMIC_Label
  10
337.2
  20
1713
  0
VERTEX
  8
MMIC_Label
  10
337.2
  20
1730.8
  0
VERTEX
  8
MMIC_Label
  10
340.8
  20
1734.4
  0
VERTEX
  8
MMIC_Label
  10
348.7
  20
1734.4
  0
VERTEX
  8
MMIC_Label
  10
353
  20
1730.1
  0
VERTEX
  8
MMIC_Label
  10
356.6
  20
1733.7
  0
VERTEX
  8
MMIC_Label
  10
350.9
  20
1739.4
  0
VERTEX
  8
MMIC_Label
  10
338.7
  20
1739.4
  0
VERTEX
  8
MMIC_Label
  10
332.2
  20
1732.9
  0
VERTEX
  8
MMIC_Label
  10
332.2
  20
1710.9
  0
VERTEX
  8
MMIC_Label
  10
338.7
  20
1704.4
  0
VERTEX
  8
MMIC_Label
  10
350.7
  20
1704.4
  0
VERTEX
  8
MMIC_Label
  10
357.2
  20
1710.9
  0
SEQEND
  0
POLYLINE
  8
MMIC_Label
  70
1
  66
1
  0
VERTEX
  8
MMIC_Label
  10
1410.2
  20
337
  0
VERTEX
  8
MMIC_Label
  10
1395.2
  20
337
  0
VERTEX
  8
MMIC_Label
  10
1395.2
  20
332
  0
VERTEX
  8
MMIC_Label
  10
1405.2
  20
332
  0
VERTEX
  8
MMIC_Label
  10
1405.2
  20
327
  0
VERTEX
  8
MMIC_Label
  10
1401.6
  20
323.4
  0
VERTEX
  8
MMIC_Label
  10
1393.8
  20
323.4
  0
VERTEX
  8
MMIC_Label
  10
1390.2
  20
327
  0
VERTEX
  8
MMIC_Label
  10
1390.2
  20
344.8
  0
VERTEX
  8
MMIC_Label
  10
1393.8
  20
348.4
  0
VERTEX
  8
MMIC_Label
  10
1401.7
  20
348.4
  0
VERTEX
  8
MMIC_Label
  10
1406
  20
344.1
  0
VERTEX
  8
MMIC_Label
  10
1409.6
  20
347.7
  0
VERTEX
  8
MMIC_Label
  10
1403.9
  20
353.4
  0
VERTEX
  8
MMIC_Label
  10
1391.7
  20
353.4
  0
VERTEX
  8
MMIC_Label
  10
1385.2
  20
346.9
  0
VERTEX
  8
MMIC_Label
  10
1385.2
  20
324.9
  0
VERTEX
  8
MMIC_Label
  10
1391.7
  20
318.4
  0
VERTEX
  8
MMIC_Label
  10
1403.7
  20
318.4
  0
VERTEX
  8
MMIC_Label
  10
1410.2
  20
324.9
  0
SEQEND
  0
POLYLINE
  8
MMIC_Label
  70
1
  66
1
  0
VERTEX
  8
MMIC_Label
  10
162.6
  20
1325.322
  0
VERTEX
  8
MMIC_Label
  10
137.6
  20
1325.322
  0
VERTEX
  8
MMIC_Label
  10
137.6
  20
1290.322
  0
VERTEX
  8
MMIC_Label
  10
142.6
  20
1290.322
  0
VERTEX
  8
MMIC_Label
  10
142.6
  20
1305.322
  0
VERTEX
  8
MMIC_Label
  10
155.1
  20
1305.322
  0
VERTEX
  8
MMIC_Label
  10
155.1
  20
1310.322
  0
VERTEX
  8
MMIC_Label
  10
142.6
  20
1310.322
  0
VERTEX
  8
MMIC_Label
  10
142.6
  20
1320.322
  0
VERTEX
  8
MMIC_Label
  10
162.6
  20
1320.322
  0
SEQEND
  0
POLYLINE
  8
MMIC_Label
  70
1
  66
1
  0
VERTEX
  8
MMIC_Label
  10
1910.2
  20
1704
  0
VERTEX
  8
MMIC_Label
  10
1895.2
  20
1704
  0
VERTEX
  8
MMIC_Label
  10
1895.2
  20
1699
  0
VERTEX
  8
MMIC_Label
  10
1905.2
  20
1699
  0
VERTEX
  8
MMIC_Label
  10
1905.2
  20
1694
  0
VERTEX
  8
MMIC_Label
  10
1901.6
  20
1690.4
  0
VERTEX
  8
MMIC_Label
  10
1893.8
  20
1690.4
  0
VERTEX
  8
MMIC_Label
  10
1890.2
  20
1694
  0
VERTEX
  8
MMIC_Label
  10
1890.2
  20
1711.8
  0
VERTEX
  8
MMIC_Label
  10
1893.8
  20
1715.4
  0
VERTEX
  8
MMIC_Label
  10
1901.7
  20
1715.4
  0
VERTEX
  8
MMIC_Label
  10
1906
  20
1711.1
  0
VERTEX
  8
MMIC_Label
  10
1909.6
  20
1714.7
  0
VERTEX
  8
MMIC_Label
  10
1903.9
  20
1720.4
  0
VERTEX
  8
MMIC_Label
  10
1891.7
  20
1720.4
  0
VERTEX
  8
MMIC_Label
  10
1885.2
  20
1713.9
  0
VERTEX
  8
MMIC_Label
  10
1885.2
  20
1691.9
  0
VERTEX
  8
MMIC_Label
  10
1891.7
  20
1685.4
  0
VERTEX
  8
MMIC_Label
  10
1903.7
  20
1685.4
  0
VERTEX
  8
MMIC_Label
  10
1910.2
  20
1691.9
  0
SEQEND
  0
POLYLINE
  8
MMIC_Label
  70
1
  66
1
  0
VERTEX
  8
MMIC_Label
  10
1230.2
  20
334
  0
VERTEX
  8
MMIC_Label
  10
1215.2
  20
334
  0
VERTEX
  8
MMIC_Label
  10
1215.2
  20
329
  0
VERTEX
  8
MMIC_Label
  10
1225.2
  20
329
  0
VERTEX
  8
MMIC_Label
  10
1225.2
  20
324
  0
VERTEX
  8
MMIC_Label
  10
1221.6
  20
320.4
  0
VERTEX
  8
MMIC_Label
  10
1213.8
  20
320.4
  0
VERTEX
  8
MMIC_Label
  10
1210.2
  20
324
  0
VERTEX
  8
MMIC_Label
  10
1210.2
  20
341.8
  0
VERTEX
  8
MMIC_Label
  10
1213.8
  20
345.4
  0
VERTEX
  8
MMIC_Label
  10
1221.7
  20
345.4
  0
VERTEX
  8
MMIC_Label
  10
1226
  20
341.1
  0
VERTEX
  8
MMIC_Label
  10
1229.6
  20
344.7
  0
VERTEX
  8
MMIC_Label
  10
1223.9
  20
350.4
  0
VERTEX
  8
MMIC_Label
  10
1211.7
  20
350.4
  0
VERTEX
  8
MMIC_Label
  10
1205.2
  20
343.9
  0
VERTEX
  8
MMIC_Label
  10
1205.2
  20
321.9
  0
VERTEX
  8
MMIC_Label
  10
1211.7
  20
315.4
  0
VERTEX
  8
MMIC_Label
  10
1223.7
  20
315.4
  0
VERTEX
  8
MMIC_Label
  10
1230.2
  20
321.9
  0
SEQEND
  0
POLYLINE
  8
MMIC_Label
  70
1
  66
1
  0
VERTEX
  8
MMIC_Label
  10
2075.2
  20
1715
  0
VERTEX
  8
MMIC_Label
  10
2068.8
  20
1721.4
  0
VERTEX
  8
MMIC_Label
  10
2050.2
  20
1721.4
  0
VERTEX
  8
MMIC_Label
  10
2050.2
  20
1686.4
  0
VERTEX
  8
MMIC_Label
  10
2055.2
  20
1686.4
  0
VERTEX
  8
MMIC_Label
  10
2055.2
  20
1716.4
  0
VERTEX
  8
MMIC_Label
  10
2066.6
  20
1716.4
  0
VERTEX
  8
MMIC_Label
  10
2070.2
  20
1712.8
  0
VERTEX
  8
MMIC_Label
  10
2070.2
  20
1692.5
  0
VERTEX
  8
MMIC_Label
  10
2069.1
  20
1691.4
  0
VERTEX
  8
MMIC_Label
  10
2060.2
  20
1691.4
  0
VERTEX
  8
MMIC_Label
  10
2060.2
  20
1686.4
  0
VERTEX
  8
MMIC_Label
  10
2071.3
  20
1686.4
  0
VERTEX
  8
MMIC_Label
  10
2075.2
  20
1690.3
  0
SEQEND
  0
POLYLINE
  8
MMIC_Label
  70
1
  66
1
  0
VERTEX
  8
MMIC_Label
  10
1440.2
  20
332
  0
VERTEX
  8
MMIC_Label
  10
1436.3
  20
335.9
  0
VERTEX
  8
MMIC_Label
  10
1440.2
  20
339.8
  0
VERTEX
  8
MMIC_Label
  10
1440.2
  20
347
  0
VERTEX
  8
MMIC_Label
  10
1433.8
  20
353.4
  0
VERTEX
  8
MMIC_Label
  10
1421.7
  20
353.4
  0
VERTEX
  8
MMIC_Label
  10
1415.2
  20
346.9
  0
VERTEX
  8
MMIC_Label
  10
1415.2
  20
340.9
  0
VERTEX
  8
MMIC_Label
  10
1420.2
  20
340.9
  0
VERTEX
  8
MMIC_Label
  10
1420.2
  20
344.8
  0
VERTEX
  8
MMIC_Label
  10
1423.8
  20
348.4
  0
VERTEX
  8
MMIC_Label
  10
1431.7
  20
348.4
  0
VERTEX
  8
MMIC_Label
  10
1435.2
  20
344.9
  0
VERTEX
  8
MMIC_Label
  10
1435.2
  20
341.9
  0
VERTEX
  8
MMIC_Label
  10
1431.7
  20
338.4
  0
VERTEX
  8
MMIC_Label
  10
1425.2
  20
338.4
  0
VERTEX
  8
MMIC_Label
  10
1425.2
  20
333.4
  0
VERTEX
  8
MMIC_Label
  10
1431.7
  20
333.4
  0
VERTEX
  8
MMIC_Label
  10
1435.2
  20
329.9
  0
VERTEX
  8
MMIC_Label
  10
1435.2
  20
326.9
  0
VERTEX
  8
MMIC_Label
  10
1431.7
  20
323.4
  0
VERTEX
  8
MMIC_Label
  10
1423.8
  20
323.4
  0
VERTEX
  8
MMIC_Label
  10
1420.2
  20
327
  0
VERTEX
  8
MMIC_Label
  10
1420.2
  20
330.9
  0
VERTEX
  8
MMIC_Label
  10
1415.2
  20
330.9
  0
VERTEX
  8
MMIC_Label
  10
1415.2
  20
324.9
  0
VERTEX
  8
MMIC_Label
  10
1421.7
  20
318.4
  0
VERTEX
  8
MMIC_Label
  10
1433.8
  20
318.4
  0
VERTEX
  8
MMIC_Label
  10
1440.2
  20
324.8
  0
SEQEND
  0
POLYLINE
  8
MMIC_Label
  70
1
  66
1
  0
VERTEX
  8
MMIC_Label
  10
1410.2
  20
337
  0
VERTEX
  8
MMIC_Label
  10
1395.2
  20
337
  0
VERTEX
  8
MMIC_Label
  10
1395.2
  20
332
  0
VERTEX
  8
MMIC_Label
  10
1405.2
  20
332
  0
VERTEX
  8
MMIC_Label
  10
1405.2
  20
327
  0
VERTEX
  8
MMIC_Label
  10
1401.6
  20
323.4
  0
VERTEX
  8
MMIC_Label
  10
1393.8
  20
323.4
  0
VERTEX
  8
MMIC_Label
  10
1390.2
  20
327
  0
VERTEX
  8
MMIC_Label
  10
1390.2
  20
344.8
  0
VERTEX
  8
MMIC_Label
  10
1393.8
  20
348.4
  0
VERTEX
  8
MMIC_Label
  10
1401.7
  20
348.4
  0
VERTEX
  8
MMIC_Label
  10
1406
  20
344.1
  0
VERTEX
  8
MMIC_Label
  10
1409.6
  20
347.7
  0
VERTEX
  8
MMIC_Label
  10
1403.9
  20
353.4
  0
VERTEX
  8
MMIC_Label
  10
1391.7
  20
353.4
  0
VERTEX
  8
MMIC_Label
  10
1385.2
  20
346.9
  0
VERTEX
  8
MMIC_Label
  10
1385.2
  20
324.9
  0
VERTEX
  8
MMIC_Label
  10
1391.7
  20
318.4
  0
VERTEX
  8
MMIC_Label
  10
1403.7
  20
318.4
  0
VERTEX
  8
MMIC_Label
  10
1410.2
  20
324.9
  0
SEQEND
  0
POLYLINE
  8
MMIC_Label
  70
1
  66
1
  0
VERTEX
  8
MMIC_Label
  10
2078.2
  20
304
  0
VERTEX
  8
MMIC_Label
  10
2071.8
  20
310.4
  0
VERTEX
  8
MMIC_Label
  10
2053.2
  20
310.4
  0
VERTEX
  8
MMIC_Label
  10
2053.2
  20
275.4
  0
VERTEX
  8
MMIC_Label
  10
2058.2
  20
275.4
  0
VERTEX
  8
MMIC_Label
  10
2058.2
  20
305.4
  0
VERTEX
  8
MMIC_Label
  10
2069.6
  20
305.4
  0
VERTEX
  8
MMIC_Label
  10
2073.2
  20
301.8
  0
VERTEX
  8
MMIC_Label
  10
2073.2
  20
281.5
  0
VERTEX
  8
MMIC_Label
  10
2072.1
  20
280.4
  0
VERTEX
  8
MMIC_Label
  10
2063.2
  20
280.4
  0
VERTEX
  8
MMIC_Label
  10
2063.2
  20
275.4
  0
VERTEX
  8
MMIC_Label
  10
2074.3
  20
275.4
  0
VERTEX
  8
MMIC_Label
  10
2078.2
  20
279.3
  0
SEQEND
  0
POLYLINE
  8
MMIC_Label
  70
1
  66
1
  0
VERTEX
  8
MMIC_Label
  10
1974.2
  20
1714
  0
VERTEX
  8
MMIC_Label
  10
1967.8
  20
1720.4
  0
VERTEX
  8
MMIC_Label
  10
1949.2
  20
1720.4
  0
VERTEX
  8
MMIC_Label
  10
1949.2
  20
1685.4
  0
VERTEX
  8
MMIC_Label
  10
1954.2
  20
1685.4
  0
VERTEX
  8
MMIC_Label
  10
1954.2
  20
1715.4
  0
VERTEX
  8
MMIC_Label
  10
1965.6
  20
1715.4
  0
VERTEX
  8
MMIC_Label
  10
1969.2
  20
1711.8
  0
VERTEX
  8
MMIC_Label
  10
1969.2
  20
1691.5
  0
VERTEX
  8
MMIC_Label
  10
1968.1
  20
1690.4
  0
VERTEX
  8
MMIC_Label
  10
1959.2
  20
1690.4
  0
VERTEX
  8
MMIC_Label
  10
1959.2
  20
1685.4
  0
VERTEX
  8
MMIC_Label
  10
1970.3
  20
1685.4
  0
VERTEX
  8
MMIC_Label
  10
1974.2
  20
1689.3
  0
SEQEND
  0
POLYLINE
  8
MMIC_Label
  70
1
  66
1
  0
VERTEX
  8
MMIC_Label
  10
1915.2
  20
294
  0
VERTEX
  8
MMIC_Label
  10
1900.2
  20
294
  0
VERTEX
  8
MMIC_Label
  10
1900.2
  20
289
  0
VERTEX
  8
MMIC_Label
  10
1910.2
  20
289
  0
VERTEX
  8
MMIC_Label
  10
1910.2
  20
284
  0
VERTEX
  8
MMIC_Label
  10
1906.6
  20
280.4
  0
VERTEX
  8
MMIC_Label
  10
1898.8
  20
280.4
  0
VERTEX
  8
MMIC_Label
  10
1895.2
  20
284
  0
VERTEX
  8
MMIC_Label
  10
1895.2
  20
301.8
  0
VERTEX
  8
MMIC_Label
  10
1898.8
  20
305.4
  0
VERTEX
  8
MMIC_Label
  10
1906.7
  20
305.4
  0
VERTEX
  8
MMIC_Label
  10
1911
  20
301.1
  0
VERTEX
  8
MMIC_Label
  10
1914.6
  20
304.7
  0
VERTEX
  8
MMIC_Label
  10
1908.9
  20
310.4
  0
VERTEX
  8
MMIC_Label
  10
1896.7
  20
310.4
  0
VERTEX
  8
MMIC_Label
  10
1890.2
  20
303.9
  0
VERTEX
  8
MMIC_Label
  10
1890.2
  20
281.9
  0
VERTEX
  8
MMIC_Label
  10
1896.7
  20
275.4
  0
VERTEX
  8
MMIC_Label
  10
1908.7
  20
275.4
  0
VERTEX
  8
MMIC_Label
  10
1915.2
  20
281.9
  0
SEQEND
  0
POLYLINE
  8
MMIC_Label
  70
1
  66
1
  0
VERTEX
  8
MMIC_Label
  10
421.2
  20
1733
  0
VERTEX
  8
MMIC_Label
  10
414.8
  20
1739.4
  0
VERTEX
  8
MMIC_Label
  10
396.2
  20
1739.4
  0
VERTEX
  8
MMIC_Label
  10
396.2
  20
1704.4
  0
VERTEX
  8
MMIC_Label
  10
401.2
  20
1704.4
  0
VERTEX
  8
MMIC_Label
  10
401.2
  20
1734.4
  0
VERTEX
  8
MMIC_Label
  10
412.6
  20
1734.4
  0
VERTEX
  8
MMIC_Label
  10
416.2
  20
1730.8
  0
VERTEX
  8
MMIC_Label
  10
416.2
  20
1710.5
  0
VERTEX
  8
MMIC_Label
  10
415.1
  20
1709.4
  0
VERTEX
  8
MMIC_Label
  10
406.2
  20
1709.4
  0
VERTEX
  8
MMIC_Label
  10
406.2
  20
1704.4
  0
VERTEX
  8
MMIC_Label
  10
417.3
  20
1704.4
  0
VERTEX
  8
MMIC_Label
  10
421.2
  20
1708.3
  0
SEQEND
  0
POLYLINE
  8
MMIC_Label
  70
1
  66
1
  0
VERTEX
  8
MMIC_Label
  10
1230.2
  20
334
  0
VERTEX
  8
MMIC_Label
  10
1215.2
  20
334
  0
VERTEX
  8
MMIC_Label
  10
1215.2
  20
329
  0
VERTEX
  8
MMIC_Label
  10
1225.2
  20
329
  0
VERTEX
  8
MMIC_Label
  10
1225.2
  20
324
  0
VERTEX
  8
MMIC_Label
  10
1221.6
  20
320.4
  0
VERTEX
  8
MMIC_Label
  10
1213.8
  20
320.4
  0
VERTEX
  8
MMIC_Label
  10
1210.2
  20
324
  0
VERTEX
  8
MMIC_Label
  10
1210.2
  20
341.8
  0
VERTEX
  8
MMIC_Label
  10
1213.8
  20
345.4
  0
VERTEX
  8
MMIC_Label
  10
1221.7
  20
345.4
  0
VERTEX
  8
MMIC_Label
  10
1226
  20
341.1
  0
VERTEX
  8
MMIC_Label
  10
1229.6
  20
344.7
  0
VERTEX
  8
MMIC_Label
  10
1223.9
  20
350.4
  0
VERTEX
  8
MMIC_Label
  10
1211.7
  20
350.4
  0
VERTEX
  8
MMIC_Label
  10
1205.2
  20
343.9
  0
VERTEX
  8
MMIC_Label
  10
1205.2
  20
321.9
  0
VERTEX
  8
MMIC_Label
  10
1211.7
  20
315.4
  0
VERTEX
  8
MMIC_Label
  10
1223.7
  20
315.4
  0
VERTEX
  8
MMIC_Label
  10
1230.2
  20
321.9
  0
SEQEND
  0
POLYLINE
  8
MMIC_Label
  70
1
  66
1
  0
VERTEX
  8
MMIC_Label
  10
2105.2
  20
1700
  0
VERTEX
  8
MMIC_Label
  10
2101.3
  20
1703.9
  0
VERTEX
  8
MMIC_Label
  10
2105.2
  20
1707.8
  0
VERTEX
  8
MMIC_Label
  10
2105.2
  20
1715
  0
VERTEX
  8
MMIC_Label
  10
2098.8
  20
1721.4
  0
VERTEX
  8
MMIC_Label
  10
2086.7
  20
1721.4
  0
VERTEX
  8
MMIC_Label
  10
2080.2
  20
1714.9
  0
VERTEX
  8
MMIC_Label
  10
2080.2
  20
1708.9
  0
VERTEX
  8
MMIC_Label
  10
2085.2
  20
1708.9
  0
VERTEX
  8
MMIC_Label
  10
2085.2
  20
1712.8
  0
VERTEX
  8
MMIC_Label
  10
2088.8
  20
1716.4
  0
VERTEX
  8
MMIC_Label
  10
2096.7
  20
1716.4
  0
VERTEX
  8
MMIC_Label
  10
2100.2
  20
1712.9
  0
VERTEX
  8
MMIC_Label
  10
2100.2
  20
1709.9
  0
VERTEX
  8
MMIC_Label
  10
2096.7
  20
1706.4
  0
VERTEX
  8
MMIC_Label
  10
2090.2
  20
1706.4
  0
VERTEX
  8
MMIC_Label
  10
2090.2
  20
1701.4
  0
VERTEX
  8
MMIC_Label
  10
2096.7
  20
1701.4
  0
VERTEX
  8
MMIC_Label
  10
2100.2
  20
1697.9
  0
VERTEX
  8
MMIC_Label
  10
2100.2
  20
1694.9
  0
VERTEX
  8
MMIC_Label
  10
2096.7
  20
1691.4
  0
VERTEX
  8
MMIC_Label
  10
2088.8
  20
1691.4
  0
VERTEX
  8
MMIC_Label
  10
2085.2
  20
1695
  0
VERTEX
  8
MMIC_Label
  10
2085.2
  20
1698.9
  0
VERTEX
  8
MMIC_Label
  10
2080.2
  20
1698.9
  0
VERTEX
  8
MMIC_Label
  10
2080.2
  20
1692.9
  0
VERTEX
  8
MMIC_Label
  10
2086.7
  20
1686.4
  0
VERTEX
  8
MMIC_Label
  10
2098.8
  20
1686.4
  0
VERTEX
  8
MMIC_Label
  10
2105.2
  20
1692.8
  0
SEQEND
  0
POLYLINE
  8
MMIC_Label
  70
1
  66
1
  0
VERTEX
  8
MMIC_Label
  10
1915.2
  20
294
  0
VERTEX
  8
MMIC_Label
  10
1900.2
  20
294
  0
VERTEX
  8
MMIC_Label
  10
1900.2
  20
289
  0
VERTEX
  8
MMIC_Label
  10
1910.2
  20
289
  0
VERTEX
  8
MMIC_Label
  10
1910.2
  20
284
  0
VERTEX
  8
MMIC_Label
  10
1906.6
  20
280.4
  0
VERTEX
  8
MMIC_Label
  10
1898.8
  20
280.4
  0
VERTEX
  8
MMIC_Label
  10
1895.2
  20
284
  0
VERTEX
  8
MMIC_Label
  10
1895.2
  20
301.8
  0
VERTEX
  8
MMIC_Label
  10
1898.8
  20
305.4
  0
VERTEX
  8
MMIC_Label
  10
1906.7
  20
305.4
  0
VERTEX
  8
MMIC_Label
  10
1911
  20
301.1
  0
VERTEX
  8
MMIC_Label
  10
1914.6
  20
304.7
  0
VERTEX
  8
MMIC_Label
  10
1908.9
  20
310.4
  0
VERTEX
  8
MMIC_Label
  10
1896.7
  20
310.4
  0
VERTEX
  8
MMIC_Label
  10
1890.2
  20
303.9
  0
VERTEX
  8
MMIC_Label
  10
1890.2
  20
281.9
  0
VERTEX
  8
MMIC_Label
  10
1896.7
  20
275.4
  0
VERTEX
  8
MMIC_Label
  10
1908.7
  20
275.4
  0
VERTEX
  8
MMIC_Label
  10
1915.2
  20
281.9
  0
SEQEND
  0
POLYLINE
  8
MMIC_Label
  70
1
  66
1
  0
VERTEX
  8
MMIC_Label
  10
162.6
  20
1325.322
  0
VERTEX
  8
MMIC_Label
  10
137.6
  20
1325.322
  0
VERTEX
  8
MMIC_Label
  10
137.6
  20
1290.322
  0
VERTEX
  8
MMIC_Label
  10
142.6
  20
1290.322
  0
VERTEX
  8
MMIC_Label
  10
142.6
  20
1305.322
  0
VERTEX
  8
MMIC_Label
  10
155.1
  20
1305.322
  0
VERTEX
  8
MMIC_Label
  10
155.1
  20
1310.322
  0
VERTEX
  8
MMIC_Label
  10
142.6
  20
1310.322
  0
VERTEX
  8
MMIC_Label
  10
142.6
  20
1320.322
  0
VERTEX
  8
MMIC_Label
  10
162.6
  20
1320.322
  0
SEQEND
  0
POLYLINE
  8
MMIC_Label
  70
1
  66
1
  0
VERTEX
  8
MMIC_Label
  10
2105.2
  20
1700
  0
VERTEX
  8
MMIC_Label
  10
2101.3
  20
1703.9
  0
VERTEX
  8
MMIC_Label
  10
2105.2
  20
1707.8
  0
VERTEX
  8
MMIC_Label
  10
2105.2
  20
1715
  0
VERTEX
  8
MMIC_Label
  10
2098.8
  20
1721.4
  0
VERTEX
  8
MMIC_Label
  10
2086.7
  20
1721.4
  0
VERTEX
  8
MMIC_Label
  10
2080.2
  20
1714.9
  0
VERTEX
  8
MMIC_Label
  10
2080.2
  20
1708.9
  0
VERTEX
  8
MMIC_Label
  10
2085.2
  20
1708.9
  0
VERTEX
  8
MMIC_Label
  10
2085.2
  20
1712.8
  0
VERTEX
  8
MMIC_Label
  10
2088.8
  20
1716.4
  0
VERTEX
  8
MMIC_Label
  10
2096.7
  20
1716.4
  0
VERTEX
  8
MMIC_Label
  10
2100.2
  20
1712.9
  0
VERTEX
  8
MMIC_Label
  10
2100.2
  20
1709.9
  0
VERTEX
  8
MMIC_Label
  10
2096.7
  20
1706.4
  0
VERTEX
  8
MMIC_Label
  10
2090.2
  20
1706.4
  0
VERTEX
  8
MMIC_Label
  10
2090.2
  20
1701.4
  0
VERTEX
  8
MMIC_Label
  10
2096.7
  20
1701.4
  0
VERTEX
  8
MMIC_Label
  10
2100.2
  20
1697.9
  0
VERTEX
  8
MMIC_Label
  10
2100.2
  20
1694.9
  0
VERTEX
  8
MMIC_Label
  10
2096.7
  20
1691.4
  0
VERTEX
  8
MMIC_Label
  10
2088.8
  20
1691.4
  0
VERTEX
  8
MMIC_Label
  10
2085.2
  20
1695
  0
VERTEX
  8
MMIC_Label
  10
2085.2
  20
1698.9
  0
VERTEX
  8
MMIC_Label
  10
2080.2
  20
1698.9
  0
VERTEX
  8
MMIC_Label
  10
2080.2
  20
1692.9
  0
VERTEX
  8
MMIC_Label
  10
2086.7
  20
1686.4
  0
VERTEX
  8
MMIC_Label
  10
2098.8
  20
1686.4
  0
VERTEX
  8
MMIC_Label
  10
2105.2
  20
1692.8
  0
SEQEND
  0
POLYLINE
  8
MMIC_Label
  70
1
  66
1
  0
VERTEX
  8
MMIC_Label
  10
550.233
  20
1654.433
  0
VERTEX
  8
MMIC_Label
  10
543.033
  20
1654.433
  0
VERTEX
  8
MMIC_Label
  10
530.833
  20
1642.233
  0
VERTEX
  8
MMIC_Label
  10
534.433
  20
1638.633
  0
VERTEX
  8
MMIC_Label
  10
540.233
  20
1644.433
  0
VERTEX
  8
MMIC_Label
  10
545.233
  20
1644.433
  0
VERTEX
  8
MMIC_Label
  10
545.233
  20
1619.433
  0
VERTEX
  8
MMIC_Label
  10
550.233
  20
1619.433
  0
SEQEND
  0
POLYLINE
  8
MMIC_Label
  70
1
  66
1
  0
VERTEX
  8
MMIC_Label
  10
550.233
  20
1654.433
  0
VERTEX
  8
MMIC_Label
  10
543.033
  20
1654.433
  0
VERTEX
  8
MMIC_Label
  10
530.833
  20
1642.233
  0
VERTEX
  8
MMIC_Label
  10
534.433
  20
1638.633
  0
VERTEX
  8
MMIC_Label
  10
540.233
  20
1644.433
  0
VERTEX
  8
MMIC_Label
  10
545.233
  20
1644.433
  0
VERTEX
  8
MMIC_Label
  10
545.233
  20
1619.433
  0
VERTEX
  8
MMIC_Label
  10
550.233
  20
1619.433
  0
SEQEND
  0
ENDSEC
  0
EOF
