  0
SECTION
  2
HEADER
  9
$ACADVER
  1
AC1009
  9
$INSUNITS
  70
13
  9
$EXTMIN
  10
-1489
  20
-990
  9
$EXTMAX
  10
1511
  20
1010
  0
ENDSEC
  0
SECTION
  2
TABLES
  0
TABLE
  2
LTYPE
  70
1
  0
LTYPE
  2
CONTINUOUS
  70
64
  3
Solid line
  72
65
  73
0
  40
0
  0
ENDTAB
  0
TABLE
  2
LAYER
  70
5
  0
LAYER
  2
MMIC_Trace
  70
0
  62
3
  6
CONTINUOUS
  0
LAYER
  2
MMIC_Via
  70
0
  62
123
  6
CONTINUOUS
  0
LAYER
  2
MMIC_BondPad
  70
0
  62
87
  6
CONTINUOUS
  0
LAYER
  2
MMIC_Die
  70
0
  62
219
  6
CONTINUOUS
  0
LAYER
  2
MMIC_Label
  70
0
  62
9
  6
CONTINUOUS
  0
ENDTAB
  0
ENDSEC
  0
SECTION
  2
BLOCKS
  0
ENDSEC
  0
SECTION
  2
ENTITIES
  0
POLYLINE
  8
MMIC_Trace
  70
1
  66
1
  0
VERTEX
  8
MMIC_Trace
  10
-1036
  20
807
  0
VERTEX
  8
MMIC_Trace
  10
-1036
  20
909
  0
VERTEX
  8
MMIC_Trace
  10
-1238
  20
909
  0
VERTEX
  8
MMIC_Trace
  10
-1238
  20
807
  0
SEQEND
  0
POLYLINE
  8
MMIC_Trace
  70
1
  66
1
  0
VERTEX
  8
MMIC_Trace
  10
-86
  20
807
  0
VERTEX
  8
MMIC_Trace
  10
-86
  20
909
  0
VERTEX
  8
MMIC_Trace
  10
-288
  20
909
  0
VERTEX
  8
MMIC_Trace
  10
-288
  20
807
  0
SEQEND
  0
POLYLINE
  8
MMIC_Trace
  70
1
  66
1
  0
VERTEX
  8
MMIC_Trace
  10
964
  20
807
  0
VERTEX
  8
MMIC_Trace
  10
964
  20
909
  0
VERTEX
  8
MMIC_Trace
  10
762
  20
909
  0
VERTEX
  8
MMIC_Trace
  10
762
  20
807
  0
SEQEND
  0
POLYLINE
  8
MMIC_Trace
  70
1
  66
1
  0
VERTEX
  8
MMIC_Trace
  10
1023
  20
798
  0
VERTEX
  8
MMIC_Trace
  10
1022
  20
798
  0
VERTEX
  8
MMIC_Trace
  10
1022
  20
751
  0
VERTEX
  8
MMIC_Trace
  10
1059
  20
751
  0
VERTEX
  8
MMIC_Trace
  10
1059
  20
752
  0
VERTEX
  8
MMIC_Trace
  10
1067
  20
752
  0
VERTEX
  8
MMIC_Trace
  10
1067
  20
751
  0
VERTEX
  8
MMIC_Trace
  10
1104
  20
751
  0
VERTEX
  8
MMIC_Trace
  10
1104
  20
798
  0
VERTEX
  8
MMIC_Trace
  10
1103
  20
798
  0
VERTEX
  8
MMIC_Trace
  10
1103
  20
807
  0
VERTEX
  8
MMIC_Trace
  10
1114
  20
807
  0
VERTEX
  8
MMIC_Trace
  10
1114
  20
909
  0
VERTEX
  8
MMIC_Trace
  10
1012
  20
909
  0
VERTEX
  8
MMIC_Trace
  10
1012
  20
807
  0
VERTEX
  8
MMIC_Trace
  10
1023
  20
807
  0
SEQEND
  0
POLYLINE
  8
MMIC_Trace
  70
1
  66
1
  0
VERTEX
  8
MMIC_Trace
  10
-1294
  20
198
  0
VERTEX
  8
MMIC_Trace
  10
-1293
  20
198
  0
VERTEX
  8
MMIC_Trace
  10
-1293
  20
235
  0
VERTEX
  8
MMIC_Trace
  10
-1340
  20
235
  0
VERTEX
  8
MMIC_Trace
  10
-1340
  20
234
  0
VERTEX
  8
MMIC_Trace
  10
-1386
  20
234
  0
VERTEX
  8
MMIC_Trace
  10
-1386
  20
186
  0
VERTEX
  8
MMIC_Trace
  10
-1388
  20
186
  0
VERTEX
  8
MMIC_Trace
  10
-1388
  20
109
  0
VERTEX
  8
MMIC_Trace
  10
-1292
  20
109
  0
VERTEX
  8
MMIC_Trace
  10
-1292
  20
186
  0
VERTEX
  8
MMIC_Trace
  10
-1294
  20
186
  0
SEQEND
  0
POLYLINE
  8
MMIC_Trace
  70
1
  66
1
  0
VERTEX
  8
MMIC_Trace
  10
1362
  20
234
  0
VERTEX
  8
MMIC_Trace
  10
1362
  20
235
  0
VERTEX
  8
MMIC_Trace
  10
1315
  20
235
  0
VERTEX
  8
MMIC_Trace
  10
1315
  20
198
  0
VERTEX
  8
MMIC_Trace
  10
1316
  20
198
  0
VERTEX
  8
MMIC_Trace
  10
1316
  20
186
  0
VERTEX
  8
MMIC_Trace
  10
1314
  20
186
  0
VERTEX
  8
MMIC_Trace
  10
1314
  20
109
  0
VERTEX
  8
MMIC_Trace
  10
1410
  20
109
  0
VERTEX
  8
MMIC_Trace
  10
1410
  20
186
  0
VERTEX
  8
MMIC_Trace
  10
1408
  20
186
  0
VERTEX
  8
MMIC_Trace
  10
1408
  20
234
  0
SEQEND
  0
POLYLINE
  8
MMIC_Trace
  70
1
  66
1
  0
VERTEX
  8
MMIC_Trace
  10
-1388
  20
-66
  0
VERTEX
  8
MMIC_Trace
  10
-1288
  20
-66
  0
VERTEX
  8
MMIC_Trace
  10
-1288
  20
86
  0
VERTEX
  8
MMIC_Trace
  10
-1388
  20
86
  0
SEQEND
  0
POLYLINE
  8
MMIC_Trace
  70
1
  66
1
  0
VERTEX
  8
MMIC_Trace
  10
1310
  20
-66
  0
VERTEX
  8
MMIC_Trace
  10
1410
  20
-66
  0
VERTEX
  8
MMIC_Trace
  10
1410
  20
86
  0
VERTEX
  8
MMIC_Trace
  10
1310
  20
86
  0
SEQEND
  0
POLYLINE
  8
MMIC_Trace
  70
1
  66
1
  0
VERTEX
  8
MMIC_Trace
  10
-1340
  20
-214
  0
VERTEX
  8
MMIC_Trace
  10
-1340
  20
-215
  0
VERTEX
  8
MMIC_Trace
  10
-1293
  20
-215
  0
VERTEX
  8
MMIC_Trace
  10
-1293
  20
-178
  0
VERTEX
  8
MMIC_Trace
  10
-1294
  20
-178
  0
VERTEX
  8
MMIC_Trace
  10
-1294
  20
-166
  0
VERTEX
  8
MMIC_Trace
  10
-1292
  20
-166
  0
VERTEX
  8
MMIC_Trace
  10
-1292
  20
-89
  0
VERTEX
  8
MMIC_Trace
  10
-1388
  20
-89
  0
VERTEX
  8
MMIC_Trace
  10
-1388
  20
-166
  0
VERTEX
  8
MMIC_Trace
  10
-1386
  20
-166
  0
VERTEX
  8
MMIC_Trace
  10
-1386
  20
-214
  0
SEQEND
  0
POLYLINE
  8
MMIC_Trace
  70
1
  66
1
  0
VERTEX
  8
MMIC_Trace
  10
1316
  20
-178
  0
VERTEX
  8
MMIC_Trace
  10
1315
  20
-178
  0
VERTEX
  8
MMIC_Trace
  10
1315
  20
-215
  0
VERTEX
  8
MMIC_Trace
  10
1362
  20
-215
  0
VERTEX
  8
MMIC_Trace
  10
1362
  20
-214
  0
VERTEX
  8
MMIC_Trace
  10
1408
  20
-214
  0
VERTEX
  8
MMIC_Trace
  10
1408
  20
-166
  0
VERTEX
  8
MMIC_Trace
  10
1410
  20
-166
  0
VERTEX
  8
MMIC_Trace
  10
1410
  20
-89
  0
VERTEX
  8
MMIC_Trace
  10
1314
  20
-89
  0
VERTEX
  8
MMIC_Trace
  10
1314
  20
-166
  0
VERTEX
  8
MMIC_Trace
  10
1316
  20
-166
  0
SEQEND
  0
POLYLINE
  8
MMIC_Trace
  70
1
  66
1
  0
VERTEX
  8
MMIC_Trace
  10
-1147
  20
-778
  0
VERTEX
  8
MMIC_Trace
  10
-1146
  20
-778
  0
VERTEX
  8
MMIC_Trace
  10
-1146
  20
-731
  0
VERTEX
  8
MMIC_Trace
  10
-1183
  20
-731
  0
VERTEX
  8
MMIC_Trace
  10
-1183
  20
-732
  0
VERTEX
  8
MMIC_Trace
  10
-1191
  20
-732
  0
VERTEX
  8
MMIC_Trace
  10
-1191
  20
-731
  0
VERTEX
  8
MMIC_Trace
  10
-1228
  20
-731
  0
VERTEX
  8
MMIC_Trace
  10
-1228
  20
-778
  0
VERTEX
  8
MMIC_Trace
  10
-1227
  20
-778
  0
VERTEX
  8
MMIC_Trace
  10
-1227
  20
-787
  0
VERTEX
  8
MMIC_Trace
  10
-1238
  20
-787
  0
VERTEX
  8
MMIC_Trace
  10
-1238
  20
-889
  0
VERTEX
  8
MMIC_Trace
  10
-1136
  20
-889
  0
VERTEX
  8
MMIC_Trace
  10
-1136
  20
-787
  0
VERTEX
  8
MMIC_Trace
  10
-1147
  20
-787
  0
SEQEND
  0
POLYLINE
  8
MMIC_Trace
  70
1
  66
1
  0
VERTEX
  8
MMIC_Trace
  10
-1088
  20
-889
  0
VERTEX
  8
MMIC_Trace
  10
-986
  20
-889
  0
VERTEX
  8
MMIC_Trace
  10
-986
  20
-787
  0
VERTEX
  8
MMIC_Trace
  10
-1088
  20
-787
  0
SEQEND
  0
POLYLINE
  8
MMIC_Trace
  70
1
  66
1
  0
VERTEX
  8
MMIC_Trace
  10
-488
  20
-889
  0
VERTEX
  8
MMIC_Trace
  10
-386
  20
-889
  0
VERTEX
  8
MMIC_Trace
  10
-386
  20
-787
  0
VERTEX
  8
MMIC_Trace
  10
-488
  20
-787
  0
SEQEND
  0
POLYLINE
  8
MMIC_Trace
  70
1
  66
1
  0
VERTEX
  8
MMIC_Trace
  10
112
  20
-889
  0
VERTEX
  8
MMIC_Trace
  10
214
  20
-889
  0
VERTEX
  8
MMIC_Trace
  10
214
  20
-787
  0
VERTEX
  8
MMIC_Trace
  10
112
  20
-787
  0
SEQEND
  0
POLYLINE
  8
MMIC_Trace
  70
1
  66
1
  0
VERTEX
  8
MMIC_Trace
  10
964
  20
-889
  0
VERTEX
  8
MMIC_Trace
  10
964
  20
-787
  0
VERTEX
  8
MMIC_Trace
  10
762
  20
-787
  0
VERTEX
  8
MMIC_Trace
  10
762
  20
-889
  0
SEQEND
  0
POLYLINE
  8
MMIC_Trace
  70
1
  66
1
  0
VERTEX
  8
MMIC_Trace
  10
1103
  20
-778
  0
VERTEX
  8
MMIC_Trace
  10
1104
  20
-778
  0
VERTEX
  8
MMIC_Trace
  10
1104
  20
-731
  0
VERTEX
  8
MMIC_Trace
  10
1067
  20
-731
  0
VERTEX
  8
MMIC_Trace
  10
1067
  20
-732
  0
VERTEX
  8
MMIC_Trace
  10
1059
  20
-732
  0
VERTEX
  8
MMIC_Trace
  10
1059
  20
-731
  0
VERTEX
  8
MMIC_Trace
  10
1022
  20
-731
  0
VERTEX
  8
MMIC_Trace
  10
1022
  20
-778
  0
VERTEX
  8
MMIC_Trace
  10
1023
  20
-778
  0
VERTEX
  8
MMIC_Trace
  10
1023
  20
-787
  0
VERTEX
  8
MMIC_Trace
  10
1012
  20
-787
  0
VERTEX
  8
MMIC_Trace
  10
1012
  20
-889
  0
VERTEX
  8
MMIC_Trace
  10
1114
  20
-889
  0
VERTEX
  8
MMIC_Trace
  10
1114
  20
-787
  0
VERTEX
  8
MMIC_Trace
  10
1103
  20
-787
  0
SEQEND
  0
POLYLINE
  8
MMIC_Via
  70
1
  66
1
  0
VERTEX
  8
MMIC_Via
  10
1033
  20
766.25
  0
VERTEX
  8
MMIC_Via
  10
1033.05
  20
765.6
  0
VERTEX
  8
MMIC_Via
  10
1033.2
  20
764.95
  0
VERTEX
  8
MMIC_Via
  10
1033.45
  20
764.3
  0
VERTEX
  8
MMIC_Via
  10
1033.8
  20
763.75
  0
VERTEX
  8
MMIC_Via
  10
1034.25
  20
763.25
  0
VERTEX
  8
MMIC_Via
  10
1034.75
  20
762.8
  0
VERTEX
  8
MMIC_Via
  10
1035.3
  20
762.45
  0
VERTEX
  8
MMIC_Via
  10
1035.95
  20
762.2
  0
VERTEX
  8
MMIC_Via
  10
1036.6
  20
762.05
  0
VERTEX
  8
MMIC_Via
  10
1037.25
  20
762
  0
VERTEX
  8
MMIC_Via
  10
1043.75
  20
762
  0
VERTEX
  8
MMIC_Via
  10
1044.4
  20
762.05
  0
VERTEX
  8
MMIC_Via
  10
1045.05
  20
762.2
  0
VERTEX
  8
MMIC_Via
  10
1045.7
  20
762.45
  0
VERTEX
  8
MMIC_Via
  10
1046.25
  20
762.8
  0
VERTEX
  8
MMIC_Via
  10
1046.75
  20
763.25
  0
VERTEX
  8
MMIC_Via
  10
1047.2
  20
763.75
  0
VERTEX
  8
MMIC_Via
  10
1047.55
  20
764.3
  0
VERTEX
  8
MMIC_Via
  10
1047.8
  20
764.95
  0
VERTEX
  8
MMIC_Via
  10
1047.95
  20
765.6
  0
VERTEX
  8
MMIC_Via
  10
1048
  20
766.25
  0
VERTEX
  8
MMIC_Via
  10
1048
  20
782.75
  0
VERTEX
  8
MMIC_Via
  10
1047.95
  20
783.4
  0
VERTEX
  8
MMIC_Via
  10
1047.8
  20
784.05
  0
VERTEX
  8
MMIC_Via
  10
1047.55
  20
784.7
  0
VERTEX
  8
MMIC_Via
  10
1047.2
  20
785.25
  0
VERTEX
  8
MMIC_Via
  10
1046.75
  20
785.75
  0
VERTEX
  8
MMIC_Via
  10
1046.25
  20
786.2
  0
VERTEX
  8
MMIC_Via
  10
1045.7
  20
786.55
  0
VERTEX
  8
MMIC_Via
  10
1045.05
  20
786.8
  0
VERTEX
  8
MMIC_Via
  10
1044.4
  20
786.95
  0
VERTEX
  8
MMIC_Via
  10
1043.75
  20
787
  0
VERTEX
  8
MMIC_Via
  10
1037.25
  20
787
  0
VERTEX
  8
MMIC_Via
  10
1036.6
  20
786.95
  0
VERTEX
  8
MMIC_Via
  10
1035.95
  20
786.8
  0
VERTEX
  8
MMIC_Via
  10
1035.3
  20
786.55
  0
VERTEX
  8
MMIC_Via
  10
1034.75
  20
786.2
  0
VERTEX
  8
MMIC_Via
  10
1034.25
  20
785.75
  0
VERTEX
  8
MMIC_Via
  10
1033.8
  20
785.25
  0
VERTEX
  8
MMIC_Via
  10
1033.45
  20
784.7
  0
VERTEX
  8
MMIC_Via
  10
1033.2
  20
784.05
  0
VERTEX
  8
MMIC_Via
  10
1033.05
  20
783.4
  0
VERTEX
  8
MMIC_Via
  10
1033
  20
782.75
  0
SEQEND
  0
POLYLINE
  8
MMIC_Via
  70
1
  66
1
  0
VERTEX
  8
MMIC_Via
  10
1078
  20
766.25
  0
VERTEX
  8
MMIC_Via
  10
1078.05
  20
765.6
  0
VERTEX
  8
MMIC_Via
  10
1078.2
  20
764.95
  0
VERTEX
  8
MMIC_Via
  10
1078.45
  20
764.3
  0
VERTEX
  8
MMIC_Via
  10
1078.8
  20
763.75
  0
VERTEX
  8
MMIC_Via
  10
1079.25
  20
763.25
  0
VERTEX
  8
MMIC_Via
  10
1079.75
  20
762.8
  0
VERTEX
  8
MMIC_Via
  10
1080.3
  20
762.45
  0
VERTEX
  8
MMIC_Via
  10
1080.95
  20
762.2
  0
VERTEX
  8
MMIC_Via
  10
1081.6
  20
762.05
  0
VERTEX
  8
MMIC_Via
  10
1082.25
  20
762
  0
VERTEX
  8
MMIC_Via
  10
1088.75
  20
762
  0
VERTEX
  8
MMIC_Via
  10
1089.4
  20
762.05
  0
VERTEX
  8
MMIC_Via
  10
1090.05
  20
762.2
  0
VERTEX
  8
MMIC_Via
  10
1090.7
  20
762.45
  0
VERTEX
  8
MMIC_Via
  10
1091.25
  20
762.8
  0
VERTEX
  8
MMIC_Via
  10
1091.75
  20
763.25
  0
VERTEX
  8
MMIC_Via
  10
1092.2
  20
763.75
  0
VERTEX
  8
MMIC_Via
  10
1092.55
  20
764.3
  0
VERTEX
  8
MMIC_Via
  10
1092.8
  20
764.95
  0
VERTEX
  8
MMIC_Via
  10
1092.95
  20
765.6
  0
VERTEX
  8
MMIC_Via
  10
1093
  20
766.25
  0
VERTEX
  8
MMIC_Via
  10
1093
  20
782.75
  0
VERTEX
  8
MMIC_Via
  10
1092.95
  20
783.4
  0
VERTEX
  8
MMIC_Via
  10
1092.8
  20
784.05
  0
VERTEX
  8
MMIC_Via
  10
1092.55
  20
784.7
  0
VERTEX
  8
MMIC_Via
  10
1092.2
  20
785.25
  0
VERTEX
  8
MMIC_Via
  10
1091.75
  20
785.75
  0
VERTEX
  8
MMIC_Via
  10
1091.25
  20
786.2
  0
VERTEX
  8
MMIC_Via
  10
1090.7
  20
786.55
  0
VERTEX
  8
MMIC_Via
  10
1090.05
  20
786.8
  0
VERTEX
  8
MMIC_Via
  10
1089.4
  20
786.95
  0
VERTEX
  8
MMIC_Via
  10
1088.75
  20
787
  0
VERTEX
  8
MMIC_Via
  10
1082.25
  20
787
  0
VERTEX
  8
MMIC_Via
  10
1081.6
  20
786.95
  0
VERTEX
  8
MMIC_Via
  10
1080.95
  20
786.8
  0
VERTEX
  8
MMIC_Via
  10
1080.3
  20
786.55
  0
VERTEX
  8
MMIC_Via
  10
1079.75
  20
786.2
  0
VERTEX
  8
MMIC_Via
  10
1079.25
  20
785.75
  0
VERTEX
  8
MMIC_Via
  10
1078.8
  20
785.25
  0
VERTEX
  8
MMIC_Via
  10
1078.45
  20
784.7
  0
VERTEX
  8
MMIC_Via
  10
1078.2
  20
784.05
  0
VERTEX
  8
MMIC_Via
  10
1078.05
  20
783.4
  0
VERTEX
  8
MMIC_Via
  10
1078
  20
782.75
  0
SEQEND
  0
POLYLINE
  8
MMIC_Via
  70
1
  66
1
  0
VERTEX
  8
MMIC_Via
  10
-1328.95
  20
212.6
  0
VERTEX
  8
MMIC_Via
  10
-1328.9
  20
212.45
  0
VERTEX
  8
MMIC_Via
  10
-1328.8
  20
211.95
  0
VERTEX
  8
MMIC_Via
  10
-1328.55
  20
211.3
  0
VERTEX
  8
MMIC_Via
  10
-1328.2
  20
210.75
  0
VERTEX
  8
MMIC_Via
  10
-1327.95
  20
210.45
  0
VERTEX
  8
MMIC_Via
  10
-1327.55
  20
210.05
  0
VERTEX
  8
MMIC_Via
  10
-1327.25
  20
209.8
  0
VERTEX
  8
MMIC_Via
  10
-1326.7
  20
209.45
  0
VERTEX
  8
MMIC_Via
  10
-1326.05
  20
209.2
  0
VERTEX
  8
MMIC_Via
  10
-1325.55
  20
209.1
  0
VERTEX
  8
MMIC_Via
  10
-1325.4
  20
209.05
  0
VERTEX
  8
MMIC_Via
  10
-1324.75
  20
209
  0
VERTEX
  8
MMIC_Via
  10
-1308.25
  20
209
  0
VERTEX
  8
MMIC_Via
  10
-1307.6
  20
209.05
  0
VERTEX
  8
MMIC_Via
  10
-1307.45
  20
209.1
  0
VERTEX
  8
MMIC_Via
  10
-1306.95
  20
209.2
  0
VERTEX
  8
MMIC_Via
  10
-1306.3
  20
209.45
  0
VERTEX
  8
MMIC_Via
  10
-1305.75
  20
209.8
  0
VERTEX
  8
MMIC_Via
  10
-1305.45
  20
210.05
  0
VERTEX
  8
MMIC_Via
  10
-1305.05
  20
210.45
  0
VERTEX
  8
MMIC_Via
  10
-1304.8
  20
210.75
  0
VERTEX
  8
MMIC_Via
  10
-1304.45
  20
211.3
  0
VERTEX
  8
MMIC_Via
  10
-1304.2
  20
211.95
  0
VERTEX
  8
MMIC_Via
  10
-1304.1
  20
212.45
  0
VERTEX
  8
MMIC_Via
  10
-1304.05
  20
212.6
  0
VERTEX
  8
MMIC_Via
  10
-1304
  20
213.25
  0
VERTEX
  8
MMIC_Via
  10
-1304
  20
219.75
  0
VERTEX
  8
MMIC_Via
  10
-1304.05
  20
220.4
  0
VERTEX
  8
MMIC_Via
  10
-1304.1
  20
220.55
  0
VERTEX
  8
MMIC_Via
  10
-1304.2
  20
221.05
  0
VERTEX
  8
MMIC_Via
  10
-1304.45
  20
221.7
  0
VERTEX
  8
MMIC_Via
  10
-1304.8
  20
222.25
  0
VERTEX
  8
MMIC_Via
  10
-1305.05
  20
222.55
  0
VERTEX
  8
MMIC_Via
  10
-1305.45
  20
222.95
  0
VERTEX
  8
MMIC_Via
  10
-1305.75
  20
223.2
  0
VERTEX
  8
MMIC_Via
  10
-1306.3
  20
223.55
  0
VERTEX
  8
MMIC_Via
  10
-1306.95
  20
223.8
  0
VERTEX
  8
MMIC_Via
  10
-1307.45
  20
223.9
  0
VERTEX
  8
MMIC_Via
  10
-1307.6
  20
223.95
  0
VERTEX
  8
MMIC_Via
  10
-1308.25
  20
224
  0
VERTEX
  8
MMIC_Via
  10
-1324.75
  20
224
  0
VERTEX
  8
MMIC_Via
  10
-1325.4
  20
223.95
  0
VERTEX
  8
MMIC_Via
  10
-1325.55
  20
223.9
  0
VERTEX
  8
MMIC_Via
  10
-1326.05
  20
223.8
  0
VERTEX
  8
MMIC_Via
  10
-1326.7
  20
223.55
  0
VERTEX
  8
MMIC_Via
  10
-1327.25
  20
223.2
  0
VERTEX
  8
MMIC_Via
  10
-1327.55
  20
222.95
  0
VERTEX
  8
MMIC_Via
  10
-1327.95
  20
222.55
  0
VERTEX
  8
MMIC_Via
  10
-1328.2
  20
222.25
  0
VERTEX
  8
MMIC_Via
  10
-1328.55
  20
221.7
  0
VERTEX
  8
MMIC_Via
  10
-1328.8
  20
221.05
  0
VERTEX
  8
MMIC_Via
  10
-1328.9
  20
220.55
  0
VERTEX
  8
MMIC_Via
  10
-1328.95
  20
220.4
  0
VERTEX
  8
MMIC_Via
  10
-1329
  20
219.75
  0
VERTEX
  8
MMIC_Via
  10
-1329
  20
213.25
  0
SEQEND
  0
POLYLINE
  8
MMIC_Via
  70
1
  66
1
  0
VERTEX
  8
MMIC_Via
  10
1326
  20
213.25
  0
VERTEX
  8
MMIC_Via
  10
1326.05
  20
212.6
  0
VERTEX
  8
MMIC_Via
  10
1326.2
  20
211.95
  0
VERTEX
  8
MMIC_Via
  10
1326.45
  20
211.3
  0
VERTEX
  8
MMIC_Via
  10
1326.8
  20
210.75
  0
VERTEX
  8
MMIC_Via
  10
1327.25
  20
210.25
  0
VERTEX
  8
MMIC_Via
  10
1327.75
  20
209.8
  0
VERTEX
  8
MMIC_Via
  10
1328.3
  20
209.45
  0
VERTEX
  8
MMIC_Via
  10
1328.95
  20
209.2
  0
VERTEX
  8
MMIC_Via
  10
1329.6
  20
209.05
  0
VERTEX
  8
MMIC_Via
  10
1330.25
  20
209
  0
VERTEX
  8
MMIC_Via
  10
1346.75
  20
209
  0
VERTEX
  8
MMIC_Via
  10
1347.4
  20
209.05
  0
VERTEX
  8
MMIC_Via
  10
1348.05
  20
209.2
  0
VERTEX
  8
MMIC_Via
  10
1348.7
  20
209.45
  0
VERTEX
  8
MMIC_Via
  10
1349.25
  20
209.8
  0
VERTEX
  8
MMIC_Via
  10
1349.75
  20
210.25
  0
VERTEX
  8
MMIC_Via
  10
1350.2
  20
210.75
  0
VERTEX
  8
MMIC_Via
  10
1350.55
  20
211.3
  0
VERTEX
  8
MMIC_Via
  10
1350.8
  20
211.95
  0
VERTEX
  8
MMIC_Via
  10
1350.95
  20
212.6
  0
VERTEX
  8
MMIC_Via
  10
1351
  20
213.25
  0
VERTEX
  8
MMIC_Via
  10
1351
  20
219.75
  0
VERTEX
  8
MMIC_Via
  10
1350.95
  20
220.4
  0
VERTEX
  8
MMIC_Via
  10
1350.8
  20
221.05
  0
VERTEX
  8
MMIC_Via
  10
1350.55
  20
221.7
  0
VERTEX
  8
MMIC_Via
  10
1350.2
  20
222.25
  0
VERTEX
  8
MMIC_Via
  10
1349.75
  20
222.75
  0
VERTEX
  8
MMIC_Via
  10
1349.25
  20
223.2
  0
VERTEX
  8
MMIC_Via
  10
1348.7
  20
223.55
  0
VERTEX
  8
MMIC_Via
  10
1348.05
  20
223.8
  0
VERTEX
  8
MMIC_Via
  10
1347.4
  20
223.95
  0
VERTEX
  8
MMIC_Via
  10
1346.75
  20
224
  0
VERTEX
  8
MMIC_Via
  10
1330.25
  20
224
  0
VERTEX
  8
MMIC_Via
  10
1329.6
  20
223.95
  0
VERTEX
  8
MMIC_Via
  10
1328.95
  20
223.8
  0
VERTEX
  8
MMIC_Via
  10
1328.3
  20
223.55
  0
VERTEX
  8
MMIC_Via
  10
1327.75
  20
223.2
  0
VERTEX
  8
MMIC_Via
  10
1327.25
  20
222.75
  0
VERTEX
  8
MMIC_Via
  10
1326.8
  20
222.25
  0
VERTEX
  8
MMIC_Via
  10
1326.45
  20
221.7
  0
VERTEX
  8
MMIC_Via
  10
1326.2
  20
221.05
  0
VERTEX
  8
MMIC_Via
  10
1326.05
  20
220.4
  0
VERTEX
  8
MMIC_Via
  10
1326
  20
219.75
  0
SEQEND
  0
POLYLINE
  8
MMIC_Via
  70
1
  66
1
  0
VERTEX
  8
MMIC_Via
  10
-1329
  20
-199.75
  0
VERTEX
  8
MMIC_Via
  10
-1328.95
  20
-200.4
  0
VERTEX
  8
MMIC_Via
  10
-1328.8
  20
-201.05
  0
VERTEX
  8
MMIC_Via
  10
-1328.55
  20
-201.7
  0
VERTEX
  8
MMIC_Via
  10
-1328.2
  20
-202.25
  0
VERTEX
  8
MMIC_Via
  10
-1327.75
  20
-202.75
  0
VERTEX
  8
MMIC_Via
  10
-1327.25
  20
-203.2
  0
VERTEX
  8
MMIC_Via
  10
-1326.7
  20
-203.55
  0
VERTEX
  8
MMIC_Via
  10
-1326.05
  20
-203.8
  0
VERTEX
  8
MMIC_Via
  10
-1325.4
  20
-203.95
  0
VERTEX
  8
MMIC_Via
  10
-1324.75
  20
-204
  0
VERTEX
  8
MMIC_Via
  10
-1308.25
  20
-204
  0
VERTEX
  8
MMIC_Via
  10
-1307.6
  20
-203.95
  0
VERTEX
  8
MMIC_Via
  10
-1306.95
  20
-203.8
  0
VERTEX
  8
MMIC_Via
  10
-1306.3
  20
-203.55
  0
VERTEX
  8
MMIC_Via
  10
-1305.75
  20
-203.2
  0
VERTEX
  8
MMIC_Via
  10
-1305.25
  20
-202.75
  0
VERTEX
  8
MMIC_Via
  10
-1304.8
  20
-202.25
  0
VERTEX
  8
MMIC_Via
  10
-1304.45
  20
-201.7
  0
VERTEX
  8
MMIC_Via
  10
-1304.2
  20
-201.05
  0
VERTEX
  8
MMIC_Via
  10
-1304.05
  20
-200.4
  0
VERTEX
  8
MMIC_Via
  10
-1304
  20
-199.75
  0
VERTEX
  8
MMIC_Via
  10
-1304
  20
-193.25
  0
VERTEX
  8
MMIC_Via
  10
-1304.05
  20
-192.6
  0
VERTEX
  8
MMIC_Via
  10
-1304.2
  20
-191.95
  0
VERTEX
  8
MMIC_Via
  10
-1304.45
  20
-191.3
  0
VERTEX
  8
MMIC_Via
  10
-1304.8
  20
-190.75
  0
VERTEX
  8
MMIC_Via
  10
-1305.25
  20
-190.25
  0
VERTEX
  8
MMIC_Via
  10
-1305.75
  20
-189.8
  0
VERTEX
  8
MMIC_Via
  10
-1306.3
  20
-189.45
  0
VERTEX
  8
MMIC_Via
  10
-1306.95
  20
-189.2
  0
VERTEX
  8
MMIC_Via
  10
-1307.6
  20
-189.05
  0
VERTEX
  8
MMIC_Via
  10
-1308.25
  20
-189
  0
VERTEX
  8
MMIC_Via
  10
-1324.75
  20
-189
  0
VERTEX
  8
MMIC_Via
  10
-1325.4
  20
-189.05
  0
VERTEX
  8
MMIC_Via
  10
-1326.05
  20
-189.2
  0
VERTEX
  8
MMIC_Via
  10
-1326.7
  20
-189.45
  0
VERTEX
  8
MMIC_Via
  10
-1327.25
  20
-189.8
  0
VERTEX
  8
MMIC_Via
  10
-1327.75
  20
-190.25
  0
VERTEX
  8
MMIC_Via
  10
-1328.2
  20
-190.75
  0
VERTEX
  8
MMIC_Via
  10
-1328.55
  20
-191.3
  0
VERTEX
  8
MMIC_Via
  10
-1328.8
  20
-191.95
  0
VERTEX
  8
MMIC_Via
  10
-1328.95
  20
-192.6
  0
VERTEX
  8
MMIC_Via
  10
-1329
  20
-193.25
  0
SEQEND
  0
POLYLINE
  8
MMIC_Via
  70
1
  66
1
  0
VERTEX
  8
MMIC_Via
  10
1326
  20
-199.75
  0
VERTEX
  8
MMIC_Via
  10
1326.05
  20
-200.4
  0
VERTEX
  8
MMIC_Via
  10
1326.2
  20
-201.05
  0
VERTEX
  8
MMIC_Via
  10
1326.45
  20
-201.7
  0
VERTEX
  8
MMIC_Via
  10
1326.8
  20
-202.25
  0
VERTEX
  8
MMIC_Via
  10
1327.25
  20
-202.75
  0
VERTEX
  8
MMIC_Via
  10
1327.75
  20
-203.2
  0
VERTEX
  8
MMIC_Via
  10
1328.3
  20
-203.55
  0
VERTEX
  8
MMIC_Via
  10
1328.95
  20
-203.8
  0
VERTEX
  8
MMIC_Via
  10
1329.6
  20
-203.95
  0
VERTEX
  8
MMIC_Via
  10
1330.25
  20
-204
  0
VERTEX
  8
MMIC_Via
  10
1346.75
  20
-204
  0
VERTEX
  8
MMIC_Via
  10
1347.4
  20
-203.95
  0
VERTEX
  8
MMIC_Via
  10
1348.05
  20
-203.8
  0
VERTEX
  8
MMIC_Via
  10
1348.7
  20
-203.55
  0
VERTEX
  8
MMIC_Via
  10
1349.25
  20
-203.2
  0
VERTEX
  8
MMIC_Via
  10
1349.75
  20
-202.75
  0
VERTEX
  8
MMIC_Via
  10
1350.2
  20
-202.25
  0
VERTEX
  8
MMIC_Via
  10
1350.55
  20
-201.7
  0
VERTEX
  8
MMIC_Via
  10
1350.8
  20
-201.05
  0
VERTEX
  8
MMIC_Via
  10
1350.95
  20
-200.4
  0
VERTEX
  8
MMIC_Via
  10
1351
  20
-199.75
  0
VERTEX
  8
MMIC_Via
  10
1351
  20
-193.25
  0
VERTEX
  8
MMIC_Via
  10
1350.95
  20
-192.6
  0
VERTEX
  8
MMIC_Via
  10
1350.8
  20
-191.95
  0
VERTEX
  8
MMIC_Via
  10
1350.55
  20
-191.3
  0
VERTEX
  8
MMIC_Via
  10
1350.2
  20
-190.75
  0
VERTEX
  8
MMIC_Via
  10
1349.75
  20
-190.25
  0
VERTEX
  8
MMIC_Via
  10
1349.25
  20
-189.8
  0
VERTEX
  8
MMIC_Via
  10
1348.7
  20
-189.45
  0
VERTEX
  8
MMIC_Via
  10
1348.05
  20
-189.2
  0
VERTEX
  8
MMIC_Via
  10
1347.4
  20
-189.05
  0
VERTEX
  8
MMIC_Via
  10
1346.75
  20
-189
  0
VERTEX
  8
MMIC_Via
  10
1330.25
  20
-189
  0
VERTEX
  8
MMIC_Via
  10
1329.6
  20
-189.05
  0
VERTEX
  8
MMIC_Via
  10
1328.95
  20
-189.2
  0
VERTEX
  8
MMIC_Via
  10
1328.3
  20
-189.45
  0
VERTEX
  8
MMIC_Via
  10
1327.75
  20
-189.8
  0
VERTEX
  8
MMIC_Via
  10
1327.25
  20
-190.25
  0
VERTEX
  8
MMIC_Via
  10
1326.8
  20
-190.75
  0
VERTEX
  8
MMIC_Via
  10
1326.45
  20
-191.3
  0
VERTEX
  8
MMIC_Via
  10
1326.2
  20
-191.95
  0
VERTEX
  8
MMIC_Via
  10
1326.05
  20
-192.6
  0
VERTEX
  8
MMIC_Via
  10
1326
  20
-193.25
  0
SEQEND
  0
POLYLINE
  8
MMIC_Via
  70
1
  66
1
  0
VERTEX
  8
MMIC_Via
  10
-1217
  20
-762.75
  0
VERTEX
  8
MMIC_Via
  10
-1216.95
  20
-763.4
  0
VERTEX
  8
MMIC_Via
  10
-1216.8
  20
-764.05
  0
VERTEX
  8
MMIC_Via
  10
-1216.55
  20
-764.7
  0
VERTEX
  8
MMIC_Via
  10
-1216.2
  20
-765.25
  0
VERTEX
  8
MMIC_Via
  10
-1215.75
  20
-765.75
  0
VERTEX
  8
MMIC_Via
  10
-1215.25
  20
-766.2
  0
VERTEX
  8
MMIC_Via
  10
-1214.7
  20
-766.55
  0
VERTEX
  8
MMIC_Via
  10
-1214.05
  20
-766.8
  0
VERTEX
  8
MMIC_Via
  10
-1213.4
  20
-766.95
  0
VERTEX
  8
MMIC_Via
  10
-1212.75
  20
-767
  0
VERTEX
  8
MMIC_Via
  10
-1206.25
  20
-767
  0
VERTEX
  8
MMIC_Via
  10
-1205.6
  20
-766.95
  0
VERTEX
  8
MMIC_Via
  10
-1204.95
  20
-766.8
  0
VERTEX
  8
MMIC_Via
  10
-1204.3
  20
-766.55
  0
VERTEX
  8
MMIC_Via
  10
-1203.75
  20
-766.2
  0
VERTEX
  8
MMIC_Via
  10
-1203.25
  20
-765.75
  0
VERTEX
  8
MMIC_Via
  10
-1202.8
  20
-765.25
  0
VERTEX
  8
MMIC_Via
  10
-1202.45
  20
-764.7
  0
VERTEX
  8
MMIC_Via
  10
-1202.2
  20
-764.05
  0
VERTEX
  8
MMIC_Via
  10
-1202.05
  20
-763.4
  0
VERTEX
  8
MMIC_Via
  10
-1202
  20
-762.75
  0
VERTEX
  8
MMIC_Via
  10
-1202
  20
-746.25
  0
VERTEX
  8
MMIC_Via
  10
-1202.05
  20
-745.6
  0
VERTEX
  8
MMIC_Via
  10
-1202.2
  20
-744.95
  0
VERTEX
  8
MMIC_Via
  10
-1202.45
  20
-744.3
  0
VERTEX
  8
MMIC_Via
  10
-1202.8
  20
-743.75
  0
VERTEX
  8
MMIC_Via
  10
-1203.25
  20
-743.25
  0
VERTEX
  8
MMIC_Via
  10
-1203.75
  20
-742.8
  0
VERTEX
  8
MMIC_Via
  10
-1204.3
  20
-742.45
  0
VERTEX
  8
MMIC_Via
  10
-1204.95
  20
-742.2
  0
VERTEX
  8
MMIC_Via
  10
-1205.6
  20
-742.05
  0
VERTEX
  8
MMIC_Via
  10
-1206.25
  20
-742
  0
VERTEX
  8
MMIC_Via
  10
-1212.75
  20
-742
  0
VERTEX
  8
MMIC_Via
  10
-1213.4
  20
-742.05
  0
VERTEX
  8
MMIC_Via
  10
-1214.05
  20
-742.2
  0
VERTEX
  8
MMIC_Via
  10
-1214.7
  20
-742.45
  0
VERTEX
  8
MMIC_Via
  10
-1215.25
  20
-742.8
  0
VERTEX
  8
MMIC_Via
  10
-1215.75
  20
-743.25
  0
VERTEX
  8
MMIC_Via
  10
-1216.2
  20
-743.75
  0
VERTEX
  8
MMIC_Via
  10
-1216.55
  20
-744.3
  0
VERTEX
  8
MMIC_Via
  10
-1216.8
  20
-744.95
  0
VERTEX
  8
MMIC_Via
  10
-1216.95
  20
-745.6
  0
VERTEX
  8
MMIC_Via
  10
-1217
  20
-746.25
  0
SEQEND
  0
POLYLINE
  8
MMIC_Via
  70
1
  66
1
  0
VERTEX
  8
MMIC_Via
  10
-1172
  20
-762.75
  0
VERTEX
  8
MMIC_Via
  10
-1171.95
  20
-763.4
  0
VERTEX
  8
MMIC_Via
  10
-1171.8
  20
-764.05
  0
VERTEX
  8
MMIC_Via
  10
-1171.55
  20
-764.7
  0
VERTEX
  8
MMIC_Via
  10
-1171.2
  20
-765.25
  0
VERTEX
  8
MMIC_Via
  10
-1170.75
  20
-765.75
  0
VERTEX
  8
MMIC_Via
  10
-1170.25
  20
-766.2
  0
VERTEX
  8
MMIC_Via
  10
-1169.7
  20
-766.55
  0
VERTEX
  8
MMIC_Via
  10
-1169.05
  20
-766.8
  0
VERTEX
  8
MMIC_Via
  10
-1168.4
  20
-766.95
  0
VERTEX
  8
MMIC_Via
  10
-1167.75
  20
-767
  0
VERTEX
  8
MMIC_Via
  10
-1161.25
  20
-767
  0
VERTEX
  8
MMIC_Via
  10
-1160.6
  20
-766.95
  0
VERTEX
  8
MMIC_Via
  10
-1159.95
  20
-766.8
  0
VERTEX
  8
MMIC_Via
  10
-1159.3
  20
-766.55
  0
VERTEX
  8
MMIC_Via
  10
-1158.75
  20
-766.2
  0
VERTEX
  8
MMIC_Via
  10
-1158.25
  20
-765.75
  0
VERTEX
  8
MMIC_Via
  10
-1157.8
  20
-765.25
  0
VERTEX
  8
MMIC_Via
  10
-1157.45
  20
-764.7
  0
VERTEX
  8
MMIC_Via
  10
-1157.2
  20
-764.05
  0
VERTEX
  8
MMIC_Via
  10
-1157.05
  20
-763.4
  0
VERTEX
  8
MMIC_Via
  10
-1157
  20
-762.75
  0
VERTEX
  8
MMIC_Via
  10
-1157
  20
-746.25
  0
VERTEX
  8
MMIC_Via
  10
-1157.05
  20
-745.6
  0
VERTEX
  8
MMIC_Via
  10
-1157.2
  20
-744.95
  0
VERTEX
  8
MMIC_Via
  10
-1157.45
  20
-744.3
  0
VERTEX
  8
MMIC_Via
  10
-1157.8
  20
-743.75
  0
VERTEX
  8
MMIC_Via
  10
-1158.25
  20
-743.25
  0
VERTEX
  8
MMIC_Via
  10
-1158.75
  20
-742.8
  0
VERTEX
  8
MMIC_Via
  10
-1159.3
  20
-742.45
  0
VERTEX
  8
MMIC_Via
  10
-1159.95
  20
-742.2
  0
VERTEX
  8
MMIC_Via
  10
-1160.6
  20
-742.05
  0
VERTEX
  8
MMIC_Via
  10
-1161.25
  20
-742
  0
VERTEX
  8
MMIC_Via
  10
-1167.75
  20
-742
  0
VERTEX
  8
MMIC_Via
  10
-1168.4
  20
-742.05
  0
VERTEX
  8
MMIC_Via
  10
-1169.05
  20
-742.2
  0
VERTEX
  8
MMIC_Via
  10
-1169.7
  20
-742.45
  0
VERTEX
  8
MMIC_Via
  10
-1170.25
  20
-742.8
  0
VERTEX
  8
MMIC_Via
  10
-1170.75
  20
-743.25
  0
VERTEX
  8
MMIC_Via
  10
-1171.2
  20
-743.75
  0
VERTEX
  8
MMIC_Via
  10
-1171.55
  20
-744.3
  0
VERTEX
  8
MMIC_Via
  10
-1171.8
  20
-744.95
  0
VERTEX
  8
MMIC_Via
  10
-1171.95
  20
-745.6
  0
VERTEX
  8
MMIC_Via
  10
-1172
  20
-746.25
  0
SEQEND
  0
POLYLINE
  8
MMIC_Via
  70
1
  66
1
  0
VERTEX
  8
MMIC_Via
  10
1033
  20
-762.75
  0
VERTEX
  8
MMIC_Via
  10
1033.05
  20
-763.4
  0
VERTEX
  8
MMIC_Via
  10
1033.2
  20
-764.05
  0
VERTEX
  8
MMIC_Via
  10
1033.45
  20
-764.7
  0
VERTEX
  8
MMIC_Via
  10
1033.8
  20
-765.25
  0
VERTEX
  8
MMIC_Via
  10
1034.25
  20
-765.75
  0
VERTEX
  8
MMIC_Via
  10
1034.75
  20
-766.2
  0
VERTEX
  8
MMIC_Via
  10
1035.3
  20
-766.55
  0
VERTEX
  8
MMIC_Via
  10
1035.95
  20
-766.8
  0
VERTEX
  8
MMIC_Via
  10
1036.6
  20
-766.95
  0
VERTEX
  8
MMIC_Via
  10
1037.25
  20
-767
  0
VERTEX
  8
MMIC_Via
  10
1043.75
  20
-767
  0
VERTEX
  8
MMIC_Via
  10
1044.4
  20
-766.95
  0
VERTEX
  8
MMIC_Via
  10
1045.05
  20
-766.8
  0
VERTEX
  8
MMIC_Via
  10
1045.7
  20
-766.55
  0
VERTEX
  8
MMIC_Via
  10
1046.25
  20
-766.2
  0
VERTEX
  8
MMIC_Via
  10
1046.75
  20
-765.75
  0
VERTEX
  8
MMIC_Via
  10
1047.2
  20
-765.25
  0
VERTEX
  8
MMIC_Via
  10
1047.55
  20
-764.7
  0
VERTEX
  8
MMIC_Via
  10
1047.8
  20
-764.05
  0
VERTEX
  8
MMIC_Via
  10
1047.95
  20
-763.4
  0
VERTEX
  8
MMIC_Via
  10
1048
  20
-762.75
  0
VERTEX
  8
MMIC_Via
  10
1048
  20
-746.25
  0
VERTEX
  8
MMIC_Via
  10
1047.95
  20
-745.6
  0
VERTEX
  8
MMIC_Via
  10
1047.8
  20
-744.95
  0
VERTEX
  8
MMIC_Via
  10
1047.55
  20
-744.3
  0
VERTEX
  8
MMIC_Via
  10
1047.2
  20
-743.75
  0
VERTEX
  8
MMIC_Via
  10
1046.75
  20
-743.25
  0
VERTEX
  8
MMIC_Via
  10
1046.25
  20
-742.8
  0
VERTEX
  8
MMIC_Via
  10
1045.7
  20
-742.45
  0
VERTEX
  8
MMIC_Via
  10
1045.05
  20
-742.2
  0
VERTEX
  8
MMIC_Via
  10
1044.4
  20
-742.05
  0
VERTEX
  8
MMIC_Via
  10
1043.75
  20
-742
  0
VERTEX
  8
MMIC_Via
  10
1037.25
  20
-742
  0
VERTEX
  8
MMIC_Via
  10
1036.6
  20
-742.05
  0
VERTEX
  8
MMIC_Via
  10
1035.95
  20
-742.2
  0
VERTEX
  8
MMIC_Via
  10
1035.3
  20
-742.45
  0
VERTEX
  8
MMIC_Via
  10
1034.75
  20
-742.8
  0
VERTEX
  8
MMIC_Via
  10
1034.25
  20
-743.25
  0
VERTEX
  8
MMIC_Via
  10
1033.8
  20
-743.75
  0
VERTEX
  8
MMIC_Via
  10
1033.45
  20
-744.3
  0
VERTEX
  8
MMIC_Via
  10
1033.2
  20
-744.95
  0
VERTEX
  8
MMIC_Via
  10
1033.05
  20
-745.6
  0
VERTEX
  8
MMIC_Via
  10
1033
  20
-746.25
  0
SEQEND
  0
POLYLINE
  8
MMIC_Via
  70
1
  66
1
  0
VERTEX
  8
MMIC_Via
  10
1078
  20
-762.75
  0
VERTEX
  8
MMIC_Via
  10
1078.05
  20
-763.4
  0
VERTEX
  8
MMIC_Via
  10
1078.2
  20
-764.05
  0
VERTEX
  8
MMIC_Via
  10
1078.45
  20
-764.7
  0
VERTEX
  8
MMIC_Via
  10
1078.8
  20
-765.25
  0
VERTEX
  8
MMIC_Via
  10
1079.25
  20
-765.75
  0
VERTEX
  8
MMIC_Via
  10
1079.75
  20
-766.2
  0
VERTEX
  8
MMIC_Via
  10
1080.3
  20
-766.55
  0
VERTEX
  8
MMIC_Via
  10
1080.95
  20
-766.8
  0
VERTEX
  8
MMIC_Via
  10
1081.6
  20
-766.95
  0
VERTEX
  8
MMIC_Via
  10
1082.25
  20
-767
  0
VERTEX
  8
MMIC_Via
  10
1088.75
  20
-767
  0
VERTEX
  8
MMIC_Via
  10
1089.4
  20
-766.95
  0
VERTEX
  8
MMIC_Via
  10
1090.05
  20
-766.8
  0
VERTEX
  8
MMIC_Via
  10
1090.7
  20
-766.55
  0
VERTEX
  8
MMIC_Via
  10
1091.25
  20
-766.2
  0
VERTEX
  8
MMIC_Via
  10
1091.75
  20
-765.75
  0
VERTEX
  8
MMIC_Via
  10
1092.2
  20
-765.25
  0
VERTEX
  8
MMIC_Via
  10
1092.55
  20
-764.7
  0
VERTEX
  8
MMIC_Via
  10
1092.8
  20
-764.05
  0
VERTEX
  8
MMIC_Via
  10
1092.95
  20
-763.4
  0
VERTEX
  8
MMIC_Via
  10
1093
  20
-762.75
  0
VERTEX
  8
MMIC_Via
  10
1093
  20
-746.25
  0
VERTEX
  8
MMIC_Via
  10
1092.95
  20
-745.6
  0
VERTEX
  8
MMIC_Via
  10
1092.8
  20
-744.95
  0
VERTEX
  8
MMIC_Via
  10
1092.55
  20
-744.3
  0
VERTEX
  8
MMIC_Via
  10
1092.2
  20
-743.75
  0
VERTEX
  8
MMIC_Via
  10
1091.75
  20
-743.25
  0
VERTEX
  8
MMIC_Via
  10
1091.25
  20
-742.8
  0
VERTEX
  8
MMIC_Via
  10
1090.7
  20
-742.45
  0
VERTEX
  8
MMIC_Via
  10
1090.05
  20
-742.2
  0
VERTEX
  8
MMIC_Via
  10
1089.4
  20
-742.05
  0
VERTEX
  8
MMIC_Via
  10
1088.75
  20
-742
  0
VERTEX
  8
MMIC_Via
  10
1082.25
  20
-742
  0
VERTEX
  8
MMIC_Via
  10
1081.6
  20
-742.05
  0
VERTEX
  8
MMIC_Via
  10
1080.95
  20
-742.2
  0
VERTEX
  8
MMIC_Via
  10
1080.3
  20
-742.45
  0
VERTEX
  8
MMIC_Via
  10
1079.75
  20
-742.8
  0
VERTEX
  8
MMIC_Via
  10
1079.25
  20
-743.25
  0
VERTEX
  8
MMIC_Via
  10
1078.8
  20
-743.75
  0
VERTEX
  8
MMIC_Via
  10
1078.45
  20
-744.3
  0
VERTEX
  8
MMIC_Via
  10
1078.2
  20
-744.95
  0
VERTEX
  8
MMIC_Via
  10
1078.05
  20
-745.6
  0
VERTEX
  8
MMIC_Via
  10
1078
  20
-746.25
  0
SEQEND
  0
POLYLINE
  8
MMIC_BondPad
  70
1
  66
1
  0
VERTEX
  8
MMIC_BondPad
  10
-1035
  20
806
  0
VERTEX
  8
MMIC_BondPad
  10
-1035
  20
910
  0
VERTEX
  8
MMIC_BondPad
  10
-1239
  20
910
  0
VERTEX
  8
MMIC_BondPad
  10
-1239
  20
806
  0
SEQEND
  0
POLYLINE
  8
MMIC_BondPad
  70
1
  66
1
  0
VERTEX
  8
MMIC_BondPad
  10
-85
  20
806
  0
VERTEX
  8
MMIC_BondPad
  10
-85
  20
910
  0
VERTEX
  8
MMIC_BondPad
  10
-289
  20
910
  0
VERTEX
  8
MMIC_BondPad
  10
-289
  20
806
  0
SEQEND
  0
POLYLINE
  8
MMIC_BondPad
  70
1
  66
1
  0
VERTEX
  8
MMIC_BondPad
  10
965
  20
806
  0
VERTEX
  8
MMIC_BondPad
  10
965
  20
910
  0
VERTEX
  8
MMIC_BondPad
  10
761
  20
910
  0
VERTEX
  8
MMIC_BondPad
  10
761
  20
806
  0
SEQEND
  0
POLYLINE
  8
MMIC_BondPad
  70
1
  66
1
  0
VERTEX
  8
MMIC_BondPad
  10
1011
  20
806
  0
VERTEX
  8
MMIC_BondPad
  10
1115
  20
806
  0
VERTEX
  8
MMIC_BondPad
  10
1115
  20
910
  0
VERTEX
  8
MMIC_BondPad
  10
1011
  20
910
  0
SEQEND
  0
POLYLINE
  8
MMIC_BondPad
  70
1
  66
1
  0
VERTEX
  8
MMIC_BondPad
  10
-1291
  20
108
  0
VERTEX
  8
MMIC_BondPad
  10
-1291
  20
187
  0
VERTEX
  8
MMIC_BondPad
  10
-1389
  20
187
  0
VERTEX
  8
MMIC_BondPad
  10
-1389
  20
108
  0
SEQEND
  0
POLYLINE
  8
MMIC_BondPad
  70
1
  66
1
  0
VERTEX
  8
MMIC_BondPad
  10
1411
  20
108
  0
VERTEX
  8
MMIC_BondPad
  10
1411
  20
187
  0
VERTEX
  8
MMIC_BondPad
  10
1313
  20
187
  0
VERTEX
  8
MMIC_BondPad
  10
1313
  20
108
  0
SEQEND
  0
POLYLINE
  8
MMIC_BondPad
  70
1
  66
1
  0
VERTEX
  8
MMIC_BondPad
  10
-1389
  20
-67
  0
VERTEX
  8
MMIC_BondPad
  10
-1287
  20
-67
  0
VERTEX
  8
MMIC_BondPad
  10
-1287
  20
87
  0
VERTEX
  8
MMIC_BondPad
  10
-1389
  20
87
  0
SEQEND
  0
POLYLINE
  8
MMIC_BondPad
  70
1
  66
1
  0
VERTEX
  8
MMIC_BondPad
  10
1309
  20
-67
  0
VERTEX
  8
MMIC_BondPad
  10
1411
  20
-67
  0
VERTEX
  8
MMIC_BondPad
  10
1411
  20
87
  0
VERTEX
  8
MMIC_BondPad
  10
1309
  20
87
  0
SEQEND
  0
POLYLINE
  8
MMIC_BondPad
  70
1
  66
1
  0
VERTEX
  8
MMIC_BondPad
  10
-1291
  20
-167
  0
VERTEX
  8
MMIC_BondPad
  10
-1291
  20
-88
  0
VERTEX
  8
MMIC_BondPad
  10
-1389
  20
-88
  0
VERTEX
  8
MMIC_BondPad
  10
-1389
  20
-167
  0
SEQEND
  0
POLYLINE
  8
MMIC_BondPad
  70
1
  66
1
  0
VERTEX
  8
MMIC_BondPad
  10
1411
  20
-167
  0
VERTEX
  8
MMIC_BondPad
  10
1411
  20
-88
  0
VERTEX
  8
MMIC_BondPad
  10
1313
  20
-88
  0
VERTEX
  8
MMIC_BondPad
  10
1313
  20
-167
  0
SEQEND
  0
POLYLINE
  8
MMIC_BondPad
  70
1
  66
1
  0
VERTEX
  8
MMIC_BondPad
  10
-1239
  20
-890
  0
VERTEX
  8
MMIC_BondPad
  10
-1135
  20
-890
  0
VERTEX
  8
MMIC_BondPad
  10
-1135
  20
-786
  0
VERTEX
  8
MMIC_BondPad
  10
-1239
  20
-786
  0
SEQEND
  0
POLYLINE
  8
MMIC_BondPad
  70
1
  66
1
  0
VERTEX
  8
MMIC_BondPad
  10
-1089
  20
-890
  0
VERTEX
  8
MMIC_BondPad
  10
-985
  20
-890
  0
VERTEX
  8
MMIC_BondPad
  10
-985
  20
-786
  0
VERTEX
  8
MMIC_BondPad
  10
-1089
  20
-786
  0
SEQEND
  0
POLYLINE
  8
MMIC_BondPad
  70
1
  66
1
  0
VERTEX
  8
MMIC_BondPad
  10
-489
  20
-890
  0
VERTEX
  8
MMIC_BondPad
  10
-385
  20
-890
  0
VERTEX
  8
MMIC_BondPad
  10
-385
  20
-786
  0
VERTEX
  8
MMIC_BondPad
  10
-489
  20
-786
  0
SEQEND
  0
POLYLINE
  8
MMIC_BondPad
  70
1
  66
1
  0
VERTEX
  8
MMIC_BondPad
  10
111
  20
-890
  0
VERTEX
  8
MMIC_BondPad
  10
215
  20
-890
  0
VERTEX
  8
MMIC_BondPad
  10
215
  20
-786
  0
VERTEX
  8
MMIC_BondPad
  10
111
  20
-786
  0
SEQEND
  0
POLYLINE
  8
MMIC_BondPad
  70
1
  66
1
  0
VERTEX
  8
MMIC_BondPad
  10
965
  20
-890
  0
VERTEX
  8
MMIC_BondPad
  10
965
  20
-786
  0
VERTEX
  8
MMIC_BondPad
  10
761
  20
-786
  0
VERTEX
  8
MMIC_BondPad
  10
761
  20
-890
  0
SEQEND
  0
POLYLINE
  8
MMIC_BondPad
  70
1
  66
1
  0
VERTEX
  8
MMIC_BondPad
  10
1011
  20
-890
  0
VERTEX
  8
MMIC_BondPad
  10
1115
  20
-890
  0
VERTEX
  8
MMIC_BondPad
  10
1115
  20
-786
  0
VERTEX
  8
MMIC_BondPad
  10
1011
  20
-786
  0
SEQEND
  0
POLYLINE
  8
MMIC_Die
  70
1
  66
1
  0
VERTEX
  8
MMIC_Die
  10
1511
  20
-990
  0
VERTEX
  8
MMIC_Die
  10
1511
  20
1010
  0
VERTEX
  8
MMIC_Die
  10
-1489
  20
1010
  0
VERTEX
  8
MMIC_Die
  10
-1489
  20
-990
  0
SEQEND
  0
POLYLINE
  8
MMIC_Label
  70
1
  66
1
  0
VERTEX
  8
MMIC_Label
  10
951.15
  20
753
  0
VERTEX
  8
MMIC_Label
  10
957.75
  20
753
  0
VERTEX
  8
MMIC_Label
  10
968
  20
786
  0
VERTEX
  8
MMIC_Label
  10
961.05
  20
786
  0
VERTEX
  8
MMIC_Label
  10
954.45
  20
761.25
  0
VERTEX
  8
MMIC_Label
  10
947.85
  20
786
  0
VERTEX
  8
MMIC_Label
  10
940.6
  20
786
  0
SEQEND
  0
POLYLINE
  8
MMIC_Label
  70
1
  66
1
  0
VERTEX
  8
MMIC_Label
  10
994.2
  20
755
  0
VERTEX
  8
MMIC_Label
  10
995.85
  20
756.3
  0
VERTEX
  8
MMIC_Label
  10
997.5
  20
758.3
  0
VERTEX
  8
MMIC_Label
  10
999.45
  20
762.25
  0
VERTEX
  8
MMIC_Label
  10
1000.15
  20
764.55
  0
VERTEX
  8
MMIC_Label
  10
1000.8
  20
767.2
  0
VERTEX
  8
MMIC_Label
  10
1000.8
  20
771.8
  0
VERTEX
  8
MMIC_Label
  10
1000.15
  20
774.45
  0
VERTEX
  8
MMIC_Label
  10
999.45
  20
776.75
  0
VERTEX
  8
MMIC_Label
  10
997.5
  20
780.7
  0
VERTEX
  8
MMIC_Label
  10
995.85
  20
782.7
  0
VERTEX
  8
MMIC_Label
  10
994.2
  20
784
  0
VERTEX
  8
MMIC_Label
  10
992.2
  20
785
  0
VERTEX
  8
MMIC_Label
  10
989.9
  20
785.65
  0
VERTEX
  8
MMIC_Label
  10
987.25
  20
786
  0
VERTEX
  8
MMIC_Label
  10
973.4
  20
786
  0
VERTEX
  8
MMIC_Label
  10
973.4
  20
753
  0
VERTEX
  8
MMIC_Label
  10
987.25
  20
753
  0
VERTEX
  8
MMIC_Label
  10
989.9
  20
753.35
  0
VERTEX
  8
MMIC_Label
  10
992.2
  20
754
  0
SEQEND
  0
POLYLINE
  8
MMIC_Label
  70
1
  66
1
  0
VERTEX
  8
MMIC_Label
  10
575.15
  20
11.6
  0
VERTEX
  8
MMIC_Label
  10
579.45
  20
11.6
  0
VERTEX
  8
MMIC_Label
  10
585.7
  20
33.4
  0
VERTEX
  8
MMIC_Label
  10
585.7
  20
6
  0
VERTEX
  8
MMIC_Label
  10
591
  20
6
  0
VERTEX
  8
MMIC_Label
  10
591
  20
39
  0
VERTEX
  8
MMIC_Label
  10
582.75
  20
39
  0
VERTEX
  8
MMIC_Label
  10
577.45
  20
16.9
  0
VERTEX
  8
MMIC_Label
  10
571.85
  20
39
  0
VERTEX
  8
MMIC_Label
  10
563.6
  20
39
  0
VERTEX
  8
MMIC_Label
  10
563.6
  20
6
  0
VERTEX
  8
MMIC_Label
  10
568.55
  20
6
  0
VERTEX
  8
MMIC_Label
  10
568.55
  20
33.4
  0
SEQEND
  0
POLYLINE
  8
MMIC_Label
  70
1
  66
1
  0
VERTEX
  8
MMIC_Label
  10
598.4
  20
12.95
  0
VERTEX
  8
MMIC_Label
  10
598.7
  20
12.25
  0
VERTEX
  8
MMIC_Label
  10
596.4
  20
9.3
  0
VERTEX
  8
MMIC_Label
  10
600.05
  20
6
  0
VERTEX
  8
MMIC_Label
  10
602
  20
8.3
  0
VERTEX
  8
MMIC_Label
  10
602.65
  20
7.65
  0
VERTEX
  8
MMIC_Label
  10
604.65
  20
6.35
  0
VERTEX
  8
MMIC_Label
  10
606.65
  20
6
  0
VERTEX
  8
MMIC_Label
  10
611.6
  20
6
  0
VERTEX
  8
MMIC_Label
  10
613.55
  20
6.35
  0
VERTEX
  8
MMIC_Label
  10
615.55
  20
7.65
  0
VERTEX
  8
MMIC_Label
  10
617.2
  20
8.95
  0
VERTEX
  8
MMIC_Label
  10
618.5
  20
10.6
  0
VERTEX
  8
MMIC_Label
  10
619.85
  20
12.95
  0
VERTEX
  8
MMIC_Label
  10
620.8
  20
14.9
  0
VERTEX
  8
MMIC_Label
  10
621.15
  20
17.55
  0
VERTEX
  8
MMIC_Label
  10
621.8
  20
19.85
  0
VERTEX
  8
MMIC_Label
  10
621.8
  20
25.15
  0
VERTEX
  8
MMIC_Label
  10
621.15
  20
27.45
  0
VERTEX
  8
MMIC_Label
  10
620.8
  20
30.1
  0
VERTEX
  8
MMIC_Label
  10
619.5
  20
32.75
  0
VERTEX
  8
MMIC_Label
  10
621.8
  20
36.05
  0
VERTEX
  8
MMIC_Label
  10
618.5
  20
39
  0
VERTEX
  8
MMIC_Label
  10
616.55
  20
36.35
  0
VERTEX
  8
MMIC_Label
  10
615.55
  20
37.35
  0
VERTEX
  8
MMIC_Label
  10
613.55
  20
38.65
  0
VERTEX
  8
MMIC_Label
  10
611.6
  20
39
  0
VERTEX
  8
MMIC_Label
  10
606.65
  20
39
  0
VERTEX
  8
MMIC_Label
  10
604.65
  20
38.65
  0
VERTEX
  8
MMIC_Label
  10
602.65
  20
37.35
  0
VERTEX
  8
MMIC_Label
  10
601
  20
36.05
  0
VERTEX
  8
MMIC_Label
  10
599.7
  20
34.4
  0
VERTEX
  8
MMIC_Label
  10
598.4
  20
32.05
  0
VERTEX
  8
MMIC_Label
  10
597.7
  20
30.1
  0
VERTEX
  8
MMIC_Label
  10
597.05
  20
27.45
  0
VERTEX
  8
MMIC_Label
  10
596.75
  20
25.15
  0
VERTEX
  8
MMIC_Label
  10
596.4
  20
22.5
  0
VERTEX
  8
MMIC_Label
  10
596.75
  20
19.85
  0
VERTEX
  8
MMIC_Label
  10
597.05
  20
17.55
  0
VERTEX
  8
MMIC_Label
  10
597.7
  20
14.9
  0
SEQEND
  0
POLYLINE
  8
MMIC_Label
  70
1
  66
1
  0
VERTEX
  8
MMIC_Label
  10
649.65
  20
19.55
  0
VERTEX
  8
MMIC_Label
  10
650.3
  20
18.2
  0
VERTEX
  8
MMIC_Label
  10
650.65
  20
16.55
  0
VERTEX
  8
MMIC_Label
  10
650.3
  20
14.6
  0
VERTEX
  8
MMIC_Label
  10
649.35
  20
12.95
  0
VERTEX
  8
MMIC_Label
  10
648
  20
11.95
  0
VERTEX
  8
MMIC_Label
  10
646.35
  20
10.95
  0
VERTEX
  8
MMIC_Label
  10
643.05
  20
10.3
  0
VERTEX
  8
MMIC_Label
  10
641.4
  20
10.6
  0
VERTEX
  8
MMIC_Label
  10
639.45
  20
10.95
  0
VERTEX
  8
MMIC_Label
  10
637.8
  20
11.6
  0
VERTEX
  8
MMIC_Label
  10
636.45
  20
12.6
  0
VERTEX
  8
MMIC_Label
  10
635.15
  20
14.25
  0
VERTEX
  8
MMIC_Label
  10
629.2
  20
14.25
  0
VERTEX
  8
MMIC_Label
  10
630.2
  20
11.6
  0
VERTEX
  8
MMIC_Label
  10
631.85
  20
9.65
  0
VERTEX
  8
MMIC_Label
  10
633.8
  20
8
  0
VERTEX
  8
MMIC_Label
  10
635.8
  20
7
  0
VERTEX
  8
MMIC_Label
  10
638.1
  20
6
  0
VERTEX
  8
MMIC_Label
  10
647.35
  20
6
  0
VERTEX
  8
MMIC_Label
  10
649.35
  20
6.65
  0
VERTEX
  8
MMIC_Label
  10
651.3
  20
7.65
  0
VERTEX
  8
MMIC_Label
  10
652.95
  20
8.95
  0
VERTEX
  8
MMIC_Label
  10
654.6
  20
10.6
  0
VERTEX
  8
MMIC_Label
  10
656.6
  20
14.6
  0
VERTEX
  8
MMIC_Label
  10
656.6
  20
16.9
  0
VERTEX
  8
MMIC_Label
  10
656.25
  20
19.55
  0
VERTEX
  8
MMIC_Label
  10
655.6
  20
21.5
  0
VERTEX
  8
MMIC_Label
  10
654.3
  20
23.5
  0
VERTEX
  8
MMIC_Label
  10
652.65
  20
24.8
  0
VERTEX
  8
MMIC_Label
  10
650.65
  20
26.15
  0
VERTEX
  8
MMIC_Label
  10
648.65
  20
26.8
  0
VERTEX
  8
MMIC_Label
  10
646.35
  20
27.45
  0
VERTEX
  8
MMIC_Label
  10
644.05
  20
27.45
  0
VERTEX
  8
MMIC_Label
  10
641.4
  20
27.1
  0
VERTEX
  8
MMIC_Label
  10
638.75
  20
26.15
  0
VERTEX
  8
MMIC_Label
  10
636.45
  20
24.8
  0
VERTEX
  8
MMIC_Label
  10
638.1
  20
33.4
  0
VERTEX
  8
MMIC_Label
  10
654.95
  20
33.4
  0
VERTEX
  8
MMIC_Label
  10
654.95
  20
39
  0
VERTEX
  8
MMIC_Label
  10
633.5
  20
39
  0
VERTEX
  8
MMIC_Label
  10
630.2
  20
20.2
  0
VERTEX
  8
MMIC_Label
  10
635.8
  20
19.85
  0
VERTEX
  8
MMIC_Label
  10
637.45
  20
20.85
  0
VERTEX
  8
MMIC_Label
  10
639.45
  20
21.85
  0
VERTEX
  8
MMIC_Label
  10
641.75
  20
22.5
  0
VERTEX
  8
MMIC_Label
  10
644.05
  20
22.5
  0
VERTEX
  8
MMIC_Label
  10
645.7
  20
22.15
  0
VERTEX
  8
MMIC_Label
  10
648.35
  20
20.85
  0
SEQEND
  0
POLYLINE
  8
MMIC_Label
  70
1
  66
1
  0
VERTEX
  8
MMIC_Label
  10
679.5
  20
33.05
  0
VERTEX
  8
MMIC_Label
  10
680.5
  20
32.4
  0
VERTEX
  8
MMIC_Label
  10
681.45
  20
31.1
  0
VERTEX
  8
MMIC_Label
  10
681.8
  20
29.75
  0
VERTEX
  8
MMIC_Label
  10
681.45
  20
28.1
  0
VERTEX
  8
MMIC_Label
  10
680.8
  20
26.8
  0
VERTEX
  8
MMIC_Label
  10
678.15
  20
25.45
  0
VERTEX
  8
MMIC_Label
  10
676.85
  20
25.15
  0
VERTEX
  8
MMIC_Label
  10
671.25
  20
25.15
  0
VERTEX
  8
MMIC_Label
  10
671.25
  20
20.85
  0
VERTEX
  8
MMIC_Label
  10
679.5
  20
20.85
  0
VERTEX
  8
MMIC_Label
  10
680.8
  20
20.2
  0
VERTEX
  8
MMIC_Label
  10
682.15
  20
19.2
  0
VERTEX
  8
MMIC_Label
  10
683.1
  20
17.9
  0
VERTEX
  8
MMIC_Label
  10
683.45
  20
16.55
  0
VERTEX
  8
MMIC_Label
  10
683.1
  20
14.6
  0
VERTEX
  8
MMIC_Label
  10
682.45
  20
13.25
  0
VERTEX
  8
MMIC_Label
  10
681.15
  20
12.25
  0
VERTEX
  8
MMIC_Label
  10
677.85
  20
10.95
  0
VERTEX
  8
MMIC_Label
  10
674.55
  20
10.95
  0
VERTEX
  8
MMIC_Label
  10
672.55
  20
11.6
  0
VERTEX
  8
MMIC_Label
  10
670.9
  20
12.25
  0
VERTEX
  8
MMIC_Label
  10
669.6
  20
13.6
  0
VERTEX
  8
MMIC_Label
  10
668.6
  20
15.25
  0
VERTEX
  8
MMIC_Label
  10
667.95
  20
16.9
  0
VERTEX
  8
MMIC_Label
  10
662
  20
16.9
  0
VERTEX
  8
MMIC_Label
  10
662.65
  20
14.6
  0
VERTEX
  8
MMIC_Label
  10
663.65
  20
12.25
  0
VERTEX
  8
MMIC_Label
  10
665.3
  20
10.3
  0
VERTEX
  8
MMIC_Label
  10
666.95
  20
8.65
  0
VERTEX
  8
MMIC_Label
  10
668.95
  20
7.3
  0
VERTEX
  8
MMIC_Label
  10
671.25
  20
6.35
  0
VERTEX
  8
MMIC_Label
  10
673.9
  20
6
  0
VERTEX
  8
MMIC_Label
  10
680.8
  20
6
  0
VERTEX
  8
MMIC_Label
  10
683.1
  20
7
  0
VERTEX
  8
MMIC_Label
  10
685.1
  20
8
  0
VERTEX
  8
MMIC_Label
  10
686.75
  20
9.3
  0
VERTEX
  8
MMIC_Label
  10
688.4
  20
11.3
  0
VERTEX
  8
MMIC_Label
  10
689.05
  20
13.25
  0
VERTEX
  8
MMIC_Label
  10
689.4
  20
15.9
  0
VERTEX
  8
MMIC_Label
  10
689.4
  20
17.55
  0
VERTEX
  8
MMIC_Label
  10
688.75
  20
19.2
  0
VERTEX
  8
MMIC_Label
  10
687.75
  20
20.85
  0
VERTEX
  8
MMIC_Label
  10
685.1
  20
22.85
  0
VERTEX
  8
MMIC_Label
  10
683.45
  20
23.5
  0
VERTEX
  8
MMIC_Label
  10
686.1
  20
25.45
  0
VERTEX
  8
MMIC_Label
  10
687.1
  20
26.8
  0
VERTEX
  8
MMIC_Label
  10
687.75
  20
28.45
  0
VERTEX
  8
MMIC_Label
  10
687.75
  20
30.1
  0
VERTEX
  8
MMIC_Label
  10
687.4
  20
32.4
  0
VERTEX
  8
MMIC_Label
  10
686.75
  20
34.4
  0
VERTEX
  8
MMIC_Label
  10
685.45
  20
36.05
  0
VERTEX
  8
MMIC_Label
  10
683.8
  20
37.35
  0
VERTEX
  8
MMIC_Label
  10
681.8
  20
38.35
  0
VERTEX
  8
MMIC_Label
  10
679.8
  20
39
  0
VERTEX
  8
MMIC_Label
  10
673.55
  20
39
  0
VERTEX
  8
MMIC_Label
  10
671.25
  20
38.65
  0
VERTEX
  8
MMIC_Label
  10
668.95
  20
38
  0
VERTEX
  8
MMIC_Label
  10
666.95
  20
36.7
  0
VERTEX
  8
MMIC_Label
  10
665.3
  20
35.05
  0
VERTEX
  8
MMIC_Label
  10
664
  20
33.05
  0
VERTEX
  8
MMIC_Label
  10
663
  20
31.1
  0
VERTEX
  8
MMIC_Label
  10
662.65
  20
28.45
  0
VERTEX
  8
MMIC_Label
  10
667.95
  20
28.45
  0
VERTEX
  8
MMIC_Label
  10
668.25
  20
30.4
  0
VERTEX
  8
MMIC_Label
  10
669.25
  20
31.75
  0
VERTEX
  8
MMIC_Label
  10
670.6
  20
32.75
  0
VERTEX
  8
MMIC_Label
  10
671.9
  20
33.4
  0
VERTEX
  8
MMIC_Label
  10
673.55
  20
34.05
  0
VERTEX
  8
MMIC_Label
  10
676.5
  20
34.05
  0
VERTEX
  8
MMIC_Label
  10
677.85
  20
33.7
  0
SEQEND
  0
POLYLINE
  8
MMIC_Label
  70
1
  66
1
  0
VERTEX
  8
MMIC_Label
  10
854.95
  20
-23.65
  0
VERTEX
  8
MMIC_Label
  10
854.95
  20
-23.6
  0
VERTEX
  8
MMIC_Label
  10
891.4
  20
17.6
  0
VERTEX
  8
MMIC_Label
  10
891.4
  20
17.65
  0
VERTEX
  8
MMIC_Label
  10
891.45
  20
17.65
  0
VERTEX
  8
MMIC_Label
  10
891.5
  20
17.7
  0
VERTEX
  8
MMIC_Label
  10
891.7
  20
17.7
  0
VERTEX
  8
MMIC_Label
  10
891.7
  20
17.65
  0
VERTEX
  8
MMIC_Label
  10
891.75
  20
17.65
  0
VERTEX
  8
MMIC_Label
  10
891.8
  20
17.6
  0
VERTEX
  8
MMIC_Label
  10
905.35
  20
-9.35
  0
VERTEX
  8
MMIC_Label
  10
905.35
  20
-9.6
  0
VERTEX
  8
MMIC_Label
  10
905.3
  20
-9.6
  0
VERTEX
  8
MMIC_Label
  10
905.3
  20
-9.65
  0
VERTEX
  8
MMIC_Label
  10
905.25
  20
-9.65
  0
VERTEX
  8
MMIC_Label
  10
878.25
  20
-9.55
  0
VERTEX
  8
MMIC_Label
  10
878.05
  20
-9.55
  0
VERTEX
  8
MMIC_Label
  10
877.8
  20
-9.6
  0
VERTEX
  8
MMIC_Label
  10
877.4
  20
-9.7
  0
VERTEX
  8
MMIC_Label
  10
877.2
  20
-9.8
  0
VERTEX
  8
MMIC_Label
  10
877.05
  20
-9.9
  0
VERTEX
  8
MMIC_Label
  10
876.85
  20
-10
  0
VERTEX
  8
MMIC_Label
  10
876.55
  20
-10.3
  0
VERTEX
  8
MMIC_Label
  10
865.75
  20
-22.25
  0
VERTEX
  8
MMIC_Label
  10
865.6
  20
-22.4
  0
VERTEX
  8
MMIC_Label
  10
865.3
  20
-23
  0
VERTEX
  8
MMIC_Label
  10
865.25
  20
-23.25
  0
VERTEX
  8
MMIC_Label
  10
865.2
  20
-23.45
  0
VERTEX
  8
MMIC_Label
  10
865.2
  20
-24.15
  0
VERTEX
  8
MMIC_Label
  10
865.25
  20
-24.35
  0
VERTEX
  8
MMIC_Label
  10
865.35
  20
-24.55
  0
VERTEX
  8
MMIC_Label
  10
865.4
  20
-24.75
  0
VERTEX
  8
MMIC_Label
  10
865.55
  20
-24.95
  0
VERTEX
  8
MMIC_Label
  10
865.65
  20
-25.15
  0
VERTEX
  8
MMIC_Label
  10
865.95
  20
-25.45
  0
VERTEX
  8
MMIC_Label
  10
866.15
  20
-25.6
  0
VERTEX
  8
MMIC_Label
  10
866.75
  20
-25.9
  0
VERTEX
  8
MMIC_Label
  10
867
  20
-25.95
  0
VERTEX
  8
MMIC_Label
  10
867.2
  20
-26
  0
VERTEX
  8
MMIC_Label
  10
934.5
  20
-26
  0
VERTEX
  8
MMIC_Label
  10
934.75
  20
-25.95
  0
VERTEX
  8
MMIC_Label
  10
935.15
  20
-25.85
  0
VERTEX
  8
MMIC_Label
  10
935.55
  20
-25.65
  0
VERTEX
  8
MMIC_Label
  10
935.7
  20
-25.5
  0
VERTEX
  8
MMIC_Label
  10
935.9
  20
-25.35
  0
VERTEX
  8
MMIC_Label
  10
936.05
  20
-25.2
  0
VERTEX
  8
MMIC_Label
  10
936.15
  20
-25
  0
VERTEX
  8
MMIC_Label
  10
936.25
  20
-24.85
  0
VERTEX
  8
MMIC_Label
  10
936.35
  20
-24.65
  0
VERTEX
  8
MMIC_Label
  10
936.45
  20
-24.4
  0
VERTEX
  8
MMIC_Label
  10
936.55
  20
-24
  0
VERTEX
  8
MMIC_Label
  10
936.55
  20
-23.55
  0
VERTEX
  8
MMIC_Label
  10
936.45
  20
-23.15
  0
VERTEX
  8
MMIC_Label
  10
936.4
  20
-22.9
  0
VERTEX
  8
MMIC_Label
  10
936.3
  20
-22.7
  0
VERTEX
  8
MMIC_Label
  10
910.05
  20
28.3
  0
VERTEX
  8
MMIC_Label
  10
908.95
  20
30.5
  0
VERTEX
  8
MMIC_Label
  10
907.85
  20
32.5
  0
VERTEX
  8
MMIC_Label
  10
906.95
  20
34.2
  0
VERTEX
  8
MMIC_Label
  10
905.65
  20
35.9
  0
VERTEX
  8
MMIC_Label
  10
904.65
  20
37.1
  0
VERTEX
  8
MMIC_Label
  10
903.65
  20
38.1
  0
VERTEX
  8
MMIC_Label
  10
902.95
  20
38.55
  0
VERTEX
  8
MMIC_Label
  10
901.85
  20
39.25
  0
VERTEX
  8
MMIC_Label
  10
901
  20
39.65
  0
VERTEX
  8
MMIC_Label
  10
899.9
  20
39.95
  0
VERTEX
  8
MMIC_Label
  10
898.9
  20
40.25
  0
VERTEX
  8
MMIC_Label
  10
897.7
  20
40.35
  0
VERTEX
  8
MMIC_Label
  10
896
  20
40.45
  0
VERTEX
  8
MMIC_Label
  10
894.3
  20
40.35
  0
VERTEX
  8
MMIC_Label
  10
893
  20
40.25
  0
VERTEX
  8
MMIC_Label
  10
892.2
  20
40.05
  0
VERTEX
  8
MMIC_Label
  10
891.1
  20
39.75
  0
VERTEX
  8
MMIC_Label
  10
889.35
  20
39.05
  0
VERTEX
  8
MMIC_Label
  10
887.95
  20
38.15
  0
VERTEX
  8
MMIC_Label
  10
885.95
  20
36.85
  0
VERTEX
  8
MMIC_Label
  10
884.15
  20
35.5
  0
VERTEX
  8
MMIC_Label
  10
882.55
  20
34
  0
VERTEX
  8
MMIC_Label
  10
880.85
  20
32.1
  0
VERTEX
  8
MMIC_Label
  10
844.55
  20
-9.1
  0
VERTEX
  8
MMIC_Label
  10
844.55
  20
-9.35
  0
VERTEX
  8
MMIC_Label
  10
845.85
  20
-12.65
  0
VERTEX
  8
MMIC_Label
  10
847.45
  20
-15.95
  0
VERTEX
  8
MMIC_Label
  10
849.25
  20
-19.15
  0
VERTEX
  8
MMIC_Label
  10
850.95
  20
-21.85
  0
VERTEX
  8
MMIC_Label
  10
852.1
  20
-23.4
  0
VERTEX
  8
MMIC_Label
  10
852.15
  20
-23.55
  0
VERTEX
  8
MMIC_Label
  10
852.15
  20
-23.65
  0
VERTEX
  8
MMIC_Label
  10
852.25
  20
-23.8
  0
VERTEX
  8
MMIC_Label
  10
852.3
  20
-23.95
  0
VERTEX
  8
MMIC_Label
  10
852.6
  20
-24.25
  0
VERTEX
  8
MMIC_Label
  10
852.75
  20
-24.35
  0
VERTEX
  8
MMIC_Label
  10
852.85
  20
-24.4
  0
VERTEX
  8
MMIC_Label
  10
853
  20
-24.5
  0
VERTEX
  8
MMIC_Label
  10
853.15
  20
-24.55
  0
VERTEX
  8
MMIC_Label
  10
853.25
  20
-24.55
  0
VERTEX
  8
MMIC_Label
  10
853.4
  20
-24.6
  0
VERTEX
  8
MMIC_Label
  10
853.7
  20
-24.6
  0
VERTEX
  8
MMIC_Label
  10
853.85
  20
-24.55
  0
VERTEX
  8
MMIC_Label
  10
854
  20
-24.55
  0
VERTEX
  8
MMIC_Label
  10
854.15
  20
-24.5
  0
VERTEX
  8
MMIC_Label
  10
854.25
  20
-24.4
  0
VERTEX
  8
MMIC_Label
  10
854.4
  20
-24.35
  0
VERTEX
  8
MMIC_Label
  10
854.8
  20
-23.95
  0
VERTEX
  8
MMIC_Label
  10
854.9
  20
-23.8
  0
SEQEND
  0
POLYLINE
  8
MMIC_Label
  70
1
  66
1
  0
VERTEX
  8
MMIC_Label
  10
994.85
  20
0.5
  0
VERTEX
  8
MMIC_Label
  10
994.85
  20
0.45
  0
VERTEX
  8
MMIC_Label
  10
994.9
  20
0.4
  0
VERTEX
  8
MMIC_Label
  10
994.95
  20
0.4
  0
VERTEX
  8
MMIC_Label
  10
994.95
  20
0.2
  0
VERTEX
  8
MMIC_Label
  10
993.65
  20
-7.65
  0
VERTEX
  8
MMIC_Label
  10
993.6
  20
-7.9
  0
VERTEX
  8
MMIC_Label
  10
993.55
  20
-8.1
  0
VERTEX
  8
MMIC_Label
  10
993.35
  20
-8.5
  0
VERTEX
  8
MMIC_Label
  10
993.2
  20
-8.7
  0
VERTEX
  8
MMIC_Label
  10
992.75
  20
-9.15
  0
VERTEX
  8
MMIC_Label
  10
992.35
  20
-9.35
  0
VERTEX
  8
MMIC_Label
  10
992.1
  20
-9.45
  0
VERTEX
  8
MMIC_Label
  10
991.7
  20
-9.55
  0
VERTEX
  8
MMIC_Label
  10
967.2
  20
-9.55
  0
VERTEX
  8
MMIC_Label
  10
965.9
  20
-9.45
  0
VERTEX
  8
MMIC_Label
  10
965
  20
-9.45
  0
VERTEX
  8
MMIC_Label
  10
963
  20
-9.05
  0
VERTEX
  8
MMIC_Label
  10
962.6
  20
-8.95
  0
VERTEX
  8
MMIC_Label
  10
961.3
  20
-8.65
  0
VERTEX
  8
MMIC_Label
  10
959.45
  20
-8.05
  0
VERTEX
  8
MMIC_Label
  10
956.85
  20
-6.75
  0
VERTEX
  8
MMIC_Label
  10
954.65
  20
-4.9
  0
VERTEX
  8
MMIC_Label
  10
953.85
  20
-3.9
  0
VERTEX
  8
MMIC_Label
  10
952.85
  20
-2.6
  0
VERTEX
  8
MMIC_Label
  10
951.85
  20
-0.7
  0
VERTEX
  8
MMIC_Label
  10
951.45
  20
0.9
  0
VERTEX
  8
MMIC_Label
  10
951.35
  20
1.9
  0
VERTEX
  8
MMIC_Label
  10
951.15
  20
3.2
  0
VERTEX
  8
MMIC_Label
  10
951.15
  20
4.75
  0
VERTEX
  8
MMIC_Label
  10
951.35
  20
6.55
  0
VERTEX
  8
MMIC_Label
  10
951.65
  20
8.15
  0
VERTEX
  8
MMIC_Label
  10
952.05
  20
9.45
  0
VERTEX
  8
MMIC_Label
  10
952.65
  20
10.85
  0
VERTEX
  8
MMIC_Label
  10
953.15
  20
11.85
  0
VERTEX
  8
MMIC_Label
  10
954.05
  20
13.35
  0
VERTEX
  8
MMIC_Label
  10
955.45
  20
15.15
  0
VERTEX
  8
MMIC_Label
  10
956.95
  20
16.7
  0
VERTEX
  8
MMIC_Label
  10
958.95
  20
18.2
  0
VERTEX
  8
MMIC_Label
  10
960.85
  20
19.4
  0
VERTEX
  8
MMIC_Label
  10
962.75
  20
20.5
  0
VERTEX
  8
MMIC_Label
  10
963
  20
20.6
  0
VERTEX
  8
MMIC_Label
  10
965.3
  20
21.4
  0
VERTEX
  8
MMIC_Label
  10
967.7
  20
22
  0
VERTEX
  8
MMIC_Label
  10
969.8
  20
22.5
  0
VERTEX
  8
MMIC_Label
  10
972
  20
22.6
  0
VERTEX
  8
MMIC_Label
  10
975.9
  20
22.7
  0
VERTEX
  8
MMIC_Label
  10
1006.7
  20
22.8
  0
VERTEX
  8
MMIC_Label
  10
1006.95
  20
22.8
  0
VERTEX
  8
MMIC_Label
  10
1007.15
  20
22.85
  0
VERTEX
  8
MMIC_Label
  10
1007.4
  20
22.9
  0
VERTEX
  8
MMIC_Label
  10
1008
  20
23.2
  0
VERTEX
  8
MMIC_Label
  10
1008.15
  20
23.35
  0
VERTEX
  8
MMIC_Label
  10
1008.35
  20
23.5
  0
VERTEX
  8
MMIC_Label
  10
1019.6
  20
35.45
  0
VERTEX
  8
MMIC_Label
  10
1019.7
  20
35.65
  0
VERTEX
  8
MMIC_Label
  10
1019.85
  20
35.8
  0
VERTEX
  8
MMIC_Label
  10
1020.05
  20
36.2
  0
VERTEX
  8
MMIC_Label
  10
1020.15
  20
36.6
  0
VERTEX
  8
MMIC_Label
  10
1020.2
  20
36.85
  0
VERTEX
  8
MMIC_Label
  10
1020.2
  20
37.05
  0
VERTEX
  8
MMIC_Label
  10
1020.15
  20
37.25
  0
VERTEX
  8
MMIC_Label
  10
1020.15
  20
37.5
  0
VERTEX
  8
MMIC_Label
  10
1020.1
  20
37.7
  0
VERTEX
  8
MMIC_Label
  10
1019.8
  20
38.3
  0
VERTEX
  8
MMIC_Label
  10
1019.35
  20
38.75
  0
VERTEX
  8
MMIC_Label
  10
1019.15
  20
38.9
  0
VERTEX
  8
MMIC_Label
  10
1019
  20
39
  0
VERTEX
  8
MMIC_Label
  10
1018.8
  20
39.1
  0
VERTEX
  8
MMIC_Label
  10
1018.6
  20
39.15
  0
VERTEX
  8
MMIC_Label
  10
1018.35
  20
39.2
  0
VERTEX
  8
MMIC_Label
  10
1018.15
  20
39.25
  0
VERTEX
  8
MMIC_Label
  10
972.6
  20
39.25
  0
VERTEX
  8
MMIC_Label
  10
971.3
  20
39.15
  0
VERTEX
  8
MMIC_Label
  10
969.4
  20
38.95
  0
VERTEX
  8
MMIC_Label
  10
967.4
  20
38.65
  0
VERTEX
  8
MMIC_Label
  10
966.1
  20
38.45
  0
VERTEX
  8
MMIC_Label
  10
963
  20
37.8
  0
VERTEX
  8
MMIC_Label
  10
962.4
  20
37.65
  0
VERTEX
  8
MMIC_Label
  10
958.8
  20
36.55
  0
VERTEX
  8
MMIC_Label
  10
955.45
  20
35.25
  0
VERTEX
  8
MMIC_Label
  10
952.15
  20
33.85
  0
VERTEX
  8
MMIC_Label
  10
949.05
  20
32.15
  0
VERTEX
  8
MMIC_Label
  10
946.25
  20
30.35
  0
VERTEX
  8
MMIC_Label
  10
943.65
  20
28.35
  0
VERTEX
  8
MMIC_Label
  10
941.15
  20
26.1
  0
VERTEX
  8
MMIC_Label
  10
939.25
  20
23.9
  0
VERTEX
  8
MMIC_Label
  10
937.45
  20
21.7
  0
VERTEX
  8
MMIC_Label
  10
935.85
  20
19.3
  0
VERTEX
  8
MMIC_Label
  10
934.45
  20
16.9
  0
VERTEX
  8
MMIC_Label
  10
933.35
  20
14.4
  0
VERTEX
  8
MMIC_Label
  10
932.45
  20
12.1
  0
VERTEX
  8
MMIC_Label
  10
931.85
  20
9.6
  0
VERTEX
  8
MMIC_Label
  10
931.35
  20
6.8
  0
VERTEX
  8
MMIC_Label
  10
931.35
  20
5.1
  0
VERTEX
  8
MMIC_Label
  10
931.25
  20
3
  0
VERTEX
  8
MMIC_Label
  10
931.25
  20
0.95
  0
VERTEX
  8
MMIC_Label
  10
931.35
  20
-0.55
  0
VERTEX
  8
MMIC_Label
  10
931.85
  20
-3.45
  0
VERTEX
  8
MMIC_Label
  10
932.25
  20
-5.05
  0
VERTEX
  8
MMIC_Label
  10
933.05
  20
-7.45
  0
VERTEX
  8
MMIC_Label
  10
933.85
  20
-9.15
  0
VERTEX
  8
MMIC_Label
  10
935.05
  20
-11.35
  0
VERTEX
  8
MMIC_Label
  10
936.15
  20
-12.95
  0
VERTEX
  8
MMIC_Label
  10
937.85
  20
-15.15
  0
VERTEX
  8
MMIC_Label
  10
939.05
  20
-16.45
  0
VERTEX
  8
MMIC_Label
  10
941.15
  20
-18.3
  0
VERTEX
  8
MMIC_Label
  10
943.35
  20
-19.9
  0
VERTEX
  8
MMIC_Label
  10
946.05
  20
-21.5
  0
VERTEX
  8
MMIC_Label
  10
948.25
  20
-22.7
  0
VERTEX
  8
MMIC_Label
  10
951.5
  20
-23.9
  0
VERTEX
  8
MMIC_Label
  10
953.8
  20
-24.6
  0
VERTEX
  8
MMIC_Label
  10
958.7
  20
-25.7
  0
VERTEX
  8
MMIC_Label
  10
960.3
  20
-25.7
  0
VERTEX
  8
MMIC_Label
  10
961.8
  20
-25.8
  0
VERTEX
  8
MMIC_Label
  10
961.9
  20
-25.8
  0
VERTEX
  8
MMIC_Label
  10
963
  20
-25.85
  0
VERTEX
  8
MMIC_Label
  10
965.7
  20
-25.9
  0
VERTEX
  8
MMIC_Label
  10
990.2
  20
-25.95
  0
VERTEX
  8
MMIC_Label
  10
1008.35
  20
-26
  0
VERTEX
  8
MMIC_Label
  10
1008.55
  20
-26
  0
VERTEX
  8
MMIC_Label
  10
1008.8
  20
-25.95
  0
VERTEX
  8
MMIC_Label
  10
1009.2
  20
-25.85
  0
VERTEX
  8
MMIC_Label
  10
1009.45
  20
-25.75
  0
VERTEX
  8
MMIC_Label
  10
1009.6
  20
-25.6
  0
VERTEX
  8
MMIC_Label
  10
1009.8
  20
-25.45
  0
VERTEX
  8
MMIC_Label
  10
1010.1
  20
-25.15
  0
VERTEX
  8
MMIC_Label
  10
1010.25
  20
-24.95
  0
VERTEX
  8
MMIC_Label
  10
1010.35
  20
-24.8
  0
VERTEX
  8
MMIC_Label
  10
1010.45
  20
-24.55
  0
VERTEX
  8
MMIC_Label
  10
1010.55
  20
-24.15
  0
VERTEX
  8
MMIC_Label
  10
1016.85
  20
12
  0
VERTEX
  8
MMIC_Label
  10
1016.9
  20
12.25
  0
VERTEX
  8
MMIC_Label
  10
1016.9
  20
12.65
  0
VERTEX
  8
MMIC_Label
  10
1016.85
  20
12.9
  0
VERTEX
  8
MMIC_Label
  10
1016.8
  20
13.1
  0
VERTEX
  8
MMIC_Label
  10
1016.5
  20
13.7
  0
VERTEX
  8
MMIC_Label
  10
1015.9
  20
14.3
  0
VERTEX
  8
MMIC_Label
  10
1015.5
  20
14.5
  0
VERTEX
  8
MMIC_Label
  10
1015.1
  20
14.6
  0
VERTEX
  8
MMIC_Label
  10
1014.85
  20
14.65
  0
VERTEX
  8
MMIC_Label
  10
975.75
  20
14.65
  0
VERTEX
  8
MMIC_Label
  10
963.7
  20
3.15
  0
VERTEX
  8
MMIC_Label
  10
963.4
  20
2.85
  0
VERTEX
  8
MMIC_Label
  10
963.3
  20
2.7
  0
VERTEX
  8
MMIC_Label
  10
963.25
  20
2.55
  0
VERTEX
  8
MMIC_Label
  10
963.2
  20
2.45
  0
VERTEX
  8
MMIC_Label
  10
963.15
  20
2.3
  0
VERTEX
  8
MMIC_Label
  10
963.15
  20
1.7
  0
VERTEX
  8
MMIC_Label
  10
963.25
  20
1.4
  0
VERTEX
  8
MMIC_Label
  10
963.3
  20
1.3
  0
VERTEX
  8
MMIC_Label
  10
963.4
  20
1.15
  0
VERTEX
  8
MMIC_Label
  10
963.8
  20
0.75
  0
VERTEX
  8
MMIC_Label
  10
963.95
  20
0.65
  0
VERTEX
  8
MMIC_Label
  10
964.05
  20
0.6
  0
VERTEX
  8
MMIC_Label
  10
964.35
  20
0.5
  0
SEQEND
  0
POLYLINE
  8
MMIC_Label
  70
1
  66
1
  0
VERTEX
  8
MMIC_Label
  10
570.85
  20
-32
  0
VERTEX
  8
MMIC_Label
  10
572.5
  20
-25.4
  0
VERTEX
  8
MMIC_Label
  10
582.4
  20
-25.4
  0
VERTEX
  8
MMIC_Label
  10
584.05
  20
-32
  0
VERTEX
  8
MMIC_Label
  10
591
  20
-32
  0
VERTEX
  8
MMIC_Label
  10
581.1
  20
1
  0
VERTEX
  8
MMIC_Label
  10
573.5
  20
1
  0
VERTEX
  8
MMIC_Label
  10
563.6
  20
-32
  0
SEQEND
  0
POLYLINE
  8
MMIC_Label
  70
1
  66
1
  0
VERTEX
  8
MMIC_Label
  10
613.9
  20
-26.05
  0
VERTEX
  8
MMIC_Label
  10
612.55
  20
-26.7
  0
VERTEX
  8
MMIC_Label
  10
610.6
  20
-27.05
  0
VERTEX
  8
MMIC_Label
  10
608.95
  20
-26.7
  0
VERTEX
  8
MMIC_Label
  10
607.3
  20
-26.05
  0
VERTEX
  8
MMIC_Label
  10
605.95
  20
-25.05
  0
VERTEX
  8
MMIC_Label
  10
604.65
  20
-23.4
  0
VERTEX
  8
MMIC_Label
  10
604
  20
-21.75
  0
VERTEX
  8
MMIC_Label
  10
603.35
  20
-19.8
  0
VERTEX
  8
MMIC_Label
  10
603
  20
-17.8
  0
VERTEX
  8
MMIC_Label
  10
603
  20
-13.2
  0
VERTEX
  8
MMIC_Label
  10
603.35
  20
-11.2
  0
VERTEX
  8
MMIC_Label
  10
604
  20
-9.25
  0
VERTEX
  8
MMIC_Label
  10
604.65
  20
-7.6
  0
VERTEX
  8
MMIC_Label
  10
605.95
  20
-5.95
  0
VERTEX
  8
MMIC_Label
  10
607.3
  20
-4.95
  0
VERTEX
  8
MMIC_Label
  10
608.95
  20
-4.3
  0
VERTEX
  8
MMIC_Label
  10
610.6
  20
-3.95
  0
VERTEX
  8
MMIC_Label
  10
612.55
  20
-4.3
  0
VERTEX
  8
MMIC_Label
  10
614.2
  20
-5.25
  0
VERTEX
  8
MMIC_Label
  10
615.55
  20
-6.25
  0
VERTEX
  8
MMIC_Label
  10
616.55
  20
-7.9
  0
VERTEX
  8
MMIC_Label
  10
617.2
  20
-9.55
  0
VERTEX
  8
MMIC_Label
  10
623.8
  20
-9.55
  0
VERTEX
  8
MMIC_Label
  10
623.15
  20
-7.25
  0
VERTEX
  8
MMIC_Label
  10
622.15
  20
-4.95
  0
VERTEX
  8
MMIC_Label
  10
620.8
  20
-3.3
  0
VERTEX
  8
MMIC_Label
  10
619.15
  20
-1.65
  0
VERTEX
  8
MMIC_Label
  10
617.5
  20
-0.3
  0
VERTEX
  8
MMIC_Label
  10
615.2
  20
0.65
  0
VERTEX
  8
MMIC_Label
  10
613.25
  20
1
  0
VERTEX
  8
MMIC_Label
  10
607.95
  20
1
  0
VERTEX
  8
MMIC_Label
  10
605.65
  20
0.65
  0
VERTEX
  8
MMIC_Label
  10
603.35
  20
-0.65
  0
VERTEX
  8
MMIC_Label
  10
601.7
  20
-1.95
  0
VERTEX
  8
MMIC_Label
  10
600.05
  20
-3.6
  0
VERTEX
  8
MMIC_Label
  10
598.7
  20
-5.95
  0
VERTEX
  8
MMIC_Label
  10
597.7
  20
-7.9
  0
VERTEX
  8
MMIC_Label
  10
597.05
  20
-10.55
  0
VERTEX
  8
MMIC_Label
  10
596.75
  20
-12.85
  0
VERTEX
  8
MMIC_Label
  10
596.4
  20
-15.5
  0
VERTEX
  8
MMIC_Label
  10
596.75
  20
-18.15
  0
VERTEX
  8
MMIC_Label
  10
597.05
  20
-20.45
  0
VERTEX
  8
MMIC_Label
  10
597.7
  20
-23.1
  0
VERTEX
  8
MMIC_Label
  10
598.7
  20
-25.05
  0
VERTEX
  8
MMIC_Label
  10
600.05
  20
-27.4
  0
VERTEX
  8
MMIC_Label
  10
601.7
  20
-29.05
  0
VERTEX
  8
MMIC_Label
  10
603.35
  20
-30.35
  0
VERTEX
  8
MMIC_Label
  10
605.65
  20
-31.65
  0
VERTEX
  8
MMIC_Label
  10
607.95
  20
-32
  0
VERTEX
  8
MMIC_Label
  10
612.55
  20
-32
  0
VERTEX
  8
MMIC_Label
  10
614.55
  20
-31.65
  0
VERTEX
  8
MMIC_Label
  10
617.85
  20
-29.7
  0
VERTEX
  8
MMIC_Label
  10
618.85
  20
-28.05
  0
VERTEX
  8
MMIC_Label
  10
620.15
  20
-32
  0
VERTEX
  8
MMIC_Label
  10
623.8
  20
-32
  0
VERTEX
  8
MMIC_Label
  10
623.8
  20
-15.5
  0
VERTEX
  8
MMIC_Label
  10
611.25
  20
-15.5
  0
VERTEX
  8
MMIC_Label
  10
611.25
  20
-20.45
  0
VERTEX
  8
MMIC_Label
  10
617.2
  20
-20.45
  0
VERTEX
  8
MMIC_Label
  10
616.85
  20
-22.1
  0
VERTEX
  8
MMIC_Label
  10
616.2
  20
-23.75
  0
VERTEX
  8
MMIC_Label
  10
615.2
  20
-25.05
  0
SEQEND
  0
POLYLINE
  8
MMIC_Label
  70
1
  66
1
  0
VERTEX
  8
MMIC_Label
  10
630.85
  20
-5.6
  0
VERTEX
  8
MMIC_Label
  10
629.2
  20
-5.6
  0
VERTEX
  8
MMIC_Label
  10
629.2
  20
-9.9
  0
VERTEX
  8
MMIC_Label
  10
638.1
  20
-9.9
  0
VERTEX
  8
MMIC_Label
  10
638.1
  20
-27.05
  0
VERTEX
  8
MMIC_Label
  10
630.85
  20
-27.05
  0
VERTEX
  8
MMIC_Label
  10
630.85
  20
-32
  0
VERTEX
  8
MMIC_Label
  10
651.95
  20
-32
  0
VERTEX
  8
MMIC_Label
  10
651.95
  20
-27.05
  0
VERTEX
  8
MMIC_Label
  10
644.7
  20
-27.05
  0
VERTEX
  8
MMIC_Label
  10
644.7
  20
1
  0
VERTEX
  8
MMIC_Label
  10
639.1
  20
1
  0
VERTEX
  8
MMIC_Label
  10
638.75
  20
-1
  0
VERTEX
  8
MMIC_Label
  10
637.8
  20
-2.65
  0
VERTEX
  8
MMIC_Label
  10
636.45
  20
-3.95
  0
VERTEX
  8
MMIC_Label
  10
634.8
  20
-4.6
  0
VERTEX
  8
MMIC_Label
  10
632.85
  20
-5.25
  0
SEQEND
  0
POLYLINE
  8
MMIC_Label
  70
1
  66
1
  0
VERTEX
  8
MMIC_Label
  10
673.85
  20
-4.3
  0
VERTEX
  8
MMIC_Label
  10
675.15
  20
-4.6
  0
VERTEX
  8
MMIC_Label
  10
676.45
  20
-5.6
  0
VERTEX
  8
MMIC_Label
  10
677.45
  20
-6.6
  0
VERTEX
  8
MMIC_Label
  10
677.8
  20
-8.25
  0
VERTEX
  8
MMIC_Label
  10
677.45
  20
-9.9
  0
VERTEX
  8
MMIC_Label
  10
676.45
  20
-11.2
  0
VERTEX
  8
MMIC_Label
  10
675.5
  20
-12.2
  0
VERTEX
  8
MMIC_Label
  10
674.15
  20
-12.85
  0
VERTEX
  8
MMIC_Label
  10
669.2
  20
-14.85
  0
VERTEX
  8
MMIC_Label
  10
662.3
  20
-18.8
  0
VERTEX
  8
MMIC_Label
  10
660.3
  20
-20.8
  0
VERTEX
  8
MMIC_Label
  10
658.65
  20
-23.1
  0
VERTEX
  8
MMIC_Label
  10
657.35
  20
-26.05
  0
VERTEX
  8
MMIC_Label
  10
657
  20
-29.35
  0
VERTEX
  8
MMIC_Label
  10
657
  20
-32
  0
VERTEX
  8
MMIC_Label
  10
684.4
  20
-32
  0
VERTEX
  8
MMIC_Label
  10
684.4
  20
-26.4
  0
VERTEX
  8
MMIC_Label
  10
664.25
  20
-26.4
  0
VERTEX
  8
MMIC_Label
  10
665.25
  20
-24.4
  0
VERTEX
  8
MMIC_Label
  10
666.55
  20
-22.75
  0
VERTEX
  8
MMIC_Label
  10
668.2
  20
-21.45
  0
VERTEX
  8
MMIC_Label
  10
669.85
  20
-20.45
  0
VERTEX
  8
MMIC_Label
  10
671.2
  20
-19.8
  0
VERTEX
  8
MMIC_Label
  10
678.45
  20
-16.5
  0
VERTEX
  8
MMIC_Label
  10
680.1
  20
-15.85
  0
VERTEX
  8
MMIC_Label
  10
681.75
  20
-14.5
  0
VERTEX
  8
MMIC_Label
  10
683.05
  20
-12.85
  0
VERTEX
  8
MMIC_Label
  10
684.05
  20
-11.2
  0
VERTEX
  8
MMIC_Label
  10
684.4
  20
-8.9
  0
VERTEX
  8
MMIC_Label
  10
684.05
  20
-6.25
  0
VERTEX
  8
MMIC_Label
  10
683.05
  20
-3.95
  0
VERTEX
  8
MMIC_Label
  10
681.75
  20
-2.3
  0
VERTEX
  8
MMIC_Label
  10
677.8
  20
0.35
  0
VERTEX
  8
MMIC_Label
  10
675.5
  20
1
  0
VERTEX
  8
MMIC_Label
  10
668.2
  20
1
  0
VERTEX
  8
MMIC_Label
  10
665.9
  20
0.65
  0
VERTEX
  8
MMIC_Label
  10
663.6
  20
-0.3
  0
VERTEX
  8
MMIC_Label
  10
661.6
  20
-1.65
  0
VERTEX
  8
MMIC_Label
  10
659.95
  20
-3.3
  0
VERTEX
  8
MMIC_Label
  10
658.3
  20
-5.25
  0
VERTEX
  8
MMIC_Label
  10
657.35
  20
-7.6
  0
VERTEX
  8
MMIC_Label
  10
657
  20
-9.9
  0
VERTEX
  8
MMIC_Label
  10
662.95
  20
-9.9
  0
VERTEX
  8
MMIC_Label
  10
664.25
  20
-6.6
  0
VERTEX
  8
MMIC_Label
  10
665.6
  20
-5.6
  0
VERTEX
  8
MMIC_Label
  10
667.25
  20
-4.6
  0
VERTEX
  8
MMIC_Label
  10
668.9
  20
-4.3
  0
VERTEX
  8
MMIC_Label
  10
670.85
  20
-3.95
  0
VERTEX
  8
MMIC_Label
  10
672.2
  20
-3.95
  0
SEQEND
  0
POLYLINE
  8
MMIC_Label
  70
1
  66
1
  0
VERTEX
  8
MMIC_Label
  10
-1313.4
  20
-280.5
  0
VERTEX
  8
MMIC_Label
  10
-1313.4
  20
-275.55
  0
VERTEX
  8
MMIC_Label
  10
-1318.7
  20
-275.55
  0
VERTEX
  8
MMIC_Label
  10
-1318.7
  20
-252.45
  0
VERTEX
  8
MMIC_Label
  10
-1313.4
  20
-252.45
  0
VERTEX
  8
MMIC_Label
  10
-1313.4
  20
-247.5
  0
VERTEX
  8
MMIC_Label
  10
-1330.9
  20
-247.5
  0
VERTEX
  8
MMIC_Label
  10
-1330.9
  20
-252.45
  0
VERTEX
  8
MMIC_Label
  10
-1325.3
  20
-252.45
  0
VERTEX
  8
MMIC_Label
  10
-1325.3
  20
-275.55
  0
VERTEX
  8
MMIC_Label
  10
-1330.9
  20
-275.55
  0
VERTEX
  8
MMIC_Label
  10
-1330.9
  20
-280.5
  0
SEQEND
  0
POLYLINE
  8
MMIC_Label
  70
1
  66
1
  0
VERTEX
  8
MMIC_Label
  10
-1308.4
  20
-280.5
  0
VERTEX
  8
MMIC_Label
  10
-1302.45
  20
-280.5
  0
VERTEX
  8
MMIC_Label
  10
-1302.45
  20
-257.4
  0
VERTEX
  8
MMIC_Label
  10
-1286.95
  20
-280.5
  0
VERTEX
  8
MMIC_Label
  10
-1281
  20
-280.5
  0
VERTEX
  8
MMIC_Label
  10
-1281
  20
-247.5
  0
VERTEX
  8
MMIC_Label
  10
-1286.95
  20
-247.5
  0
VERTEX
  8
MMIC_Label
  10
-1286.95
  20
-270.6
  0
VERTEX
  8
MMIC_Label
  10
-1301.8
  20
-247.5
  0
VERTEX
  8
MMIC_Label
  10
-1308.4
  20
-247.5
  0
SEQEND
  0
POLYLINE
  8
MMIC_Label
  70
1
  66
1
  0
VERTEX
  8
MMIC_Label
  10
-937
  20
-817.85
  0
VERTEX
  8
MMIC_Label
  10
-930.4
  20
-817.85
  0
VERTEX
  8
MMIC_Label
  10
-920.2
  20
-784.85
  0
VERTEX
  8
MMIC_Label
  10
-927.1
  20
-784.85
  0
VERTEX
  8
MMIC_Label
  10
-933.7
  20
-809.6
  0
VERTEX
  8
MMIC_Label
  10
-940.3
  20
-784.85
  0
VERTEX
  8
MMIC_Label
  10
-947.55
  20
-784.85
  0
SEQEND
  0
POLYLINE
  8
MMIC_Label
  70
1
  66
1
  0
VERTEX
  8
MMIC_Label
  10
-897.3
  20
-811.9
  0
VERTEX
  8
MMIC_Label
  10
-898.6
  20
-812.6
  0
VERTEX
  8
MMIC_Label
  10
-900.6
  20
-812.9
  0
VERTEX
  8
MMIC_Label
  10
-902.25
  20
-812.6
  0
VERTEX
  8
MMIC_Label
  10
-903.9
  20
-811.9
  0
VERTEX
  8
MMIC_Label
  10
-905.2
  20
-810.95
  0
VERTEX
  8
MMIC_Label
  10
-906.5
  20
-809.3
  0
VERTEX
  8
MMIC_Label
  10
-907.2
  20
-807.65
  0
VERTEX
  8
MMIC_Label
  10
-907.85
  20
-805.65
  0
VERTEX
  8
MMIC_Label
  10
-908.15
  20
-803.65
  0
VERTEX
  8
MMIC_Label
  10
-908.15
  20
-799.05
  0
VERTEX
  8
MMIC_Label
  10
-907.85
  20
-797.05
  0
VERTEX
  8
MMIC_Label
  10
-907.2
  20
-795.1
  0
VERTEX
  8
MMIC_Label
  10
-906.5
  20
-793.45
  0
VERTEX
  8
MMIC_Label
  10
-905.2
  20
-791.8
  0
VERTEX
  8
MMIC_Label
  10
-903.9
  20
-790.8
  0
VERTEX
  8
MMIC_Label
  10
-902.25
  20
-790.15
  0
VERTEX
  8
MMIC_Label
  10
-900.6
  20
-789.8
  0
VERTEX
  8
MMIC_Label
  10
-898.6
  20
-790.15
  0
VERTEX
  8
MMIC_Label
  10
-896.95
  20
-791.15
  0
VERTEX
  8
MMIC_Label
  10
-895.65
  20
-792.1
  0
VERTEX
  8
MMIC_Label
  10
-894.65
  20
-793.75
  0
VERTEX
  8
MMIC_Label
  10
-894
  20
-795.4
  0
VERTEX
  8
MMIC_Label
  10
-887.4
  20
-795.4
  0
VERTEX
  8
MMIC_Label
  10
-888.05
  20
-793.1
  0
VERTEX
  8
MMIC_Label
  10
-889.05
  20
-790.8
  0
VERTEX
  8
MMIC_Label
  10
-890.35
  20
-789.15
  0
VERTEX
  8
MMIC_Label
  10
-892
  20
-787.5
  0
VERTEX
  8
MMIC_Label
  10
-893.65
  20
-786.2
  0
VERTEX
  8
MMIC_Label
  10
-895.95
  20
-785.2
  0
VERTEX
  8
MMIC_Label
  10
-897.95
  20
-784.85
  0
VERTEX
  8
MMIC_Label
  10
-903.2
  20
-784.85
  0
VERTEX
  8
MMIC_Label
  10
-905.55
  20
-785.2
  0
VERTEX
  8
MMIC_Label
  10
-907.85
  20
-786.5
  0
VERTEX
  8
MMIC_Label
  10
-909.5
  20
-787.85
  0
VERTEX
  8
MMIC_Label
  10
-911.15
  20
-789.5
  0
VERTEX
  8
MMIC_Label
  10
-912.45
  20
-791.8
  0
VERTEX
  8
MMIC_Label
  10
-913.45
  20
-793.75
  0
VERTEX
  8
MMIC_Label
  10
-914.1
  20
-796.4
  0
VERTEX
  8
MMIC_Label
  10
-914.45
  20
-798.7
  0
VERTEX
  8
MMIC_Label
  10
-914.75
  20
-801.35
  0
VERTEX
  8
MMIC_Label
  10
-914.45
  20
-804
  0
VERTEX
  8
MMIC_Label
  10
-914.1
  20
-806.3
  0
VERTEX
  8
MMIC_Label
  10
-913.45
  20
-808.95
  0
VERTEX
  8
MMIC_Label
  10
-912.45
  20
-810.95
  0
VERTEX
  8
MMIC_Label
  10
-911.15
  20
-813.25
  0
VERTEX
  8
MMIC_Label
  10
-909.5
  20
-814.9
  0
VERTEX
  8
MMIC_Label
  10
-907.85
  20
-816.2
  0
VERTEX
  8
MMIC_Label
  10
-905.55
  20
-817.55
  0
VERTEX
  8
MMIC_Label
  10
-903.2
  20
-817.85
  0
VERTEX
  8
MMIC_Label
  10
-898.6
  20
-817.85
  0
VERTEX
  8
MMIC_Label
  10
-896.6
  20
-817.55
  0
VERTEX
  8
MMIC_Label
  10
-893.3
  20
-815.55
  0
VERTEX
  8
MMIC_Label
  10
-892.35
  20
-813.9
  0
VERTEX
  8
MMIC_Label
  10
-891
  20
-817.85
  0
VERTEX
  8
MMIC_Label
  10
-887.4
  20
-817.85
  0
VERTEX
  8
MMIC_Label
  10
-887.4
  20
-801.35
  0
VERTEX
  8
MMIC_Label
  10
-899.9
  20
-801.35
  0
VERTEX
  8
MMIC_Label
  10
-899.9
  20
-806.3
  0
VERTEX
  8
MMIC_Label
  10
-894
  20
-806.3
  0
VERTEX
  8
MMIC_Label
  10
-894.3
  20
-807.95
  0
VERTEX
  8
MMIC_Label
  10
-894.95
  20
-809.6
  0
VERTEX
  8
MMIC_Label
  10
-895.95
  20
-810.95
  0
SEQEND
  0
ENDSEC
  0
EOF
